А Б В Г Д Е Ж З И К Л М Н О П Р С Т У Ф Х Ц Ч Ш Щ Э Ю Я
A B C D E F G H I J K L M N O P Q R S T U V W X Y Z 0-9

от автора

в

5FDP — Wrecking Ball

Укулеле Гитара
Тональность -1 +1



Скорость
Цвет
//270deg //300deg //360deg // 45 deg //90 deg //150deg //180 deg //225deg //315 deg

Скорость
Intro: x2
   Bm                       Bm                       D                      Em
2)-----------------------------------------------------------8--7--5--7-5-----------10--8--7--8-7-
3)---------12--11-9--11-9-----------12--11-9--11-9---7-7-7---7--7--7--7-7---9-9-9---x---x--x--x-x-
4)-7-7-7---7---7--7--7--7---7-7-7---7---7--7--7--7---7-7-7------------------9-9-9---9---9--9--9-9-
5)-7-7-7--------------------7-7-7--------------------5-5-5------------------7-7-7-----------------
6)-7-7-7--------------------7-7-7-----------------------------------------------------------------
   v v v  v^v  v  v  v  v   v v v  v^v  v  v  v  v   v v v  v^v v  v  v v   v v v  v^v  v  v  v v

   B5         C5 B5 
3)--------------------2---2-------
4)-4-4-4-4-4-4-5-4--4---3---3-2-0-
5)-2-2-2-2-2-2-3-2----------------

Verse:
   B5          C5 B5          C5 B5          C5 B5
3)--------------------------------------------------2---2-------
4)-4-4-4-4-4-4-5-4--4-4-4-4-4-5-4--4-4-4-4-4-5-4--4---3---3-2-0-
5)-2-2-2-2-2-2-3-2--2-2-2-2-2-3-2--2-2-2-2-2-3-2----------------

  B5               C5
Sliced up - shot down
B5               C5  
Everybody bows down
 B5                  C5
Kill em all - let em fall
B5
God'll sort em out
B5                  C5
Ripped up - zip it up
 B5                  C5  
Really never gave a fuck
 B5                      C5
Wrecking ball - fuck em all
B5
Never had a doubt

Pre-Chorus:
C#5
I'm - never gonna be the one to
C#5
I'm - always gonna say what I feel
C#5
I'm - always do what I do
C#5
Sick of all the bullshit

Chorus:
  Bm        Bm
Why - should I
        D            Em
Always be the one to back away
  Em         Bm
Why - should I
         D            Em                    B5 
Have to be the one to not say what's on my mind
      B5                     B5
I'm a mother fuckin' wrecking 
      B5               
I'm a mother fuckin' wrecking ball 

Verse:
   B5          C5 B5          C5 B5          C5 B5
3)--------------------------------------------------2---2-------
4)-4-4-4-4-4-4-5-4--4-4-4-4-4-5-4--4-4-4-4-4-5-4--4---3---3-2-0-
5)-2-2-2-2-2-2-3-2--2-2-2-2-2-3-2--2-2-2-2-2-3-2----------------

B5                        C5 
Take down - ground and pound
  B5                C5
That's the resolution
 B5                C5
Show face - disgrace
  B5
A scar of evolution
B5                   C5 
Nice boots - cheap suit
 B5                  C5        
You're about to find out
 B5                  C5
Right here - right now
 B5
That's what I'm about

Pre-Chorus:
C#5
I'm - always gonna be the one
C#5
I'm - always gonna say the shit that
C#5
I'm - always gonna hold a grudge
C#5
Sick of all the bullshit

Chorus:
  Bm        Bm
Why - should I
        D            Em
Always be the one to back away
  Em         Bm
Why - should I
         D            Em                    B5 
Have to be the one to not say what's on my mind
      B5                     B5
I'm a mother fuckin' wrecking 
      B5                       
I'm a mother fuckin' wrecking ball 
      B5                     B5
I'm a mother fuckin' wrecking 
      B5               
I'm a mother fuckin' wrecking ball 

Solo: C#5 / B5 C#5 }x16

Chorus:
  Bm         Bm
Why - should I
        D            Em
Always be the one to back away
  Em         Bm
Why - should I
         D            Em                    Bm
Have to be the one to not say what's on my mind

  Bm         Bm
Why - should I
        D            Em
Always be the one to back away
  Em         Bm
Why - should I
         D            Em                    B5 
Have to be the one to not say what's on my mind
      B5                     B5
I'm a mother fuckin' wrecking 
      B5                       
I'm a mother fuckin' wrecking ball 
      B5                     B5
I'm a mother fuckin' wrecking 
      B5               
I'm a mother fuckin' wrecking ball

Outro:
   Bm                Bm                D                 Em
2)-7-----7-----7-8---7-----7-----7-8---7-----7-----7-8---7-----8-----8-10-
3)---4-4---4-4---------4-4---4-4---------7-7---7-7---------9-9---9-9------
 Скачать
Какой бой для этой песни?
Шестерка
56.26%
Восьмерка
11.01%
Четверка
7.5%
Бой Цоя
5.59%
Регги
3.03%
Перебором
7.85%
Свой бой
8.76%

Проголосовало: 2307

Комментарии

Добавить комментарий

Ваш адрес email не будет опубликован. Обязательные поля помечены *