А Б В Г Д Е Ж З И К Л М Н О П Р С Т У Ф Х Ц Ч Ш Щ Э Ю Я
A B C D E F G H I J K L M N O P Q R S T U V W X Y Z 0-9

от автора

в

5FDP — Generation Dead

Укулеле Гитара
Тональность -1 +1



Скорость
Цвет
//270deg //300deg //360deg // 45 deg //90 deg //150deg //180 deg //225deg //315 deg

Скорость
Intro:     2 раза                                        4 раза
2)----------------------------------1--|----------------------------------1--
3)-------------------------------------|-4--4-5-4---5-4---4--4-5-4-----------
4)--------------------------------3----|-4--4-5-4---5-4---4--4-5-4------3----
5)-2--2-3-2---3-2---2--2-3-2----3------|-2--2-3-2---3-2---2--2-3-2----3------
6)----------------------------1--------|----------------------------1--------

Verse:
   B5                 B5 /  F   
2)--------------------------------1--
3)-4--4--4-4-4-4-4-4--4--4-----------
4)-4--4--4-4-4-4-4-4--4--4------3----
5)-2--2--2-2-2-2-2-2--2--2----3------
6)--------------------------1--------
   V  v  ^ ^ v v v ^  V  v 

Verse:
   Bm                          Bm / F
I look around and all I see is evil
 Bm                             Bm  / F
Walking dead disguised as real people
      Bm                                    Bm / F
It's kill or be killed 'cause life is not forever
   Bm                              Bm / F
It comes apart and then it falls together

Pre-Chorus:
  Em          F#m
I am what you made me
      G          A  A
'Til death do I part

Chorus:
          Em     
It's the world I've grown to know
      C
Unforgiving and so cold
          G
Take it away, take it away
        D   /  D#
I don't want it
        Em 
It's a life I'm forced to live
          C
I've got nothing more to give
          G
Take it away, take it away
         D    /    D#
I don't want it anymore
                  B5
We're generation dead

Проигрыш: x2
2)-------------------------------------------1-
3)-5-4-x-x-x--5--4-x-x-x-x--5-4-x-x-x----------
4)-5-4-x-x-x--5--4-x-x-x-x--5-4-x-x-x------3---
5)-3-2-x-x-x--3--2-x-x-x-x--3-2-x-x-x----3----- 
6)-------------------------------------1-------
                                           ...We're dead

Verse:
   Bm                          Bm / F
You see yourself as such a fucking shepherd
   Bm                          Bm / F
But you drift the blind and then you curse the leper
   Bm                          Bm / F
Do you really want my true opinion?
   Bm                          Bm / F
You've taken more than you've ever given

Pre-Chorus:
    Em           F#m
You are what you are
        G           A  A
Until death do you part

Chorus:
        Em     
It's the world I've grown to know
      C
Unforgiving and so cold
          G
Take it away, take it away
        D   / D#
I don't want it
        Em 
It's a life I'm forced to live
          C
I've got nothing more to give
          G
Take it away, take it away
         D    /    D#
I don't want it anymore
                  B5
We're generation dead

Проигрыш:
2)-------------------------------------------1-
3)-5-4-x-x-x--5--4-x-x-x-x--5-4-x-x-x----------
4)-5-4-x-x-x--5--4-x-x-x-x--5-4-x-x-x------3---
5)-3-2-x-x-x--3--2-x-x-x-x--3-2-x-x-x----3----- 
6)-------------------------------------1-------

Pre-Chorus: Em F#m G A }x3

Chorus:
        Em     
It's the world I've grown to know
      C
Unforgiving and so cold
          G
Take it away, take it away
        D    / D#
I don't want it
        Em 
It's a life I'm forced to live
          C
I've got nothing more to give
          G
Take it away, take it away
         D    /    D#
I don't want it anymore
        Em     
It's the world I've grown to know
      C
Unforgiving and so cold
          G
Take it away, take it away
        D    /   D#
I don't want it
        Em 
It's a life I'm forced to live
          C
I've got nothing more to give
          G
Take it away, take it away
         D    /    D#
I don't want it anymore
                  B5
We're generation dead

Outro=Проигрыш:
2)-------------------------------------------1-
3)-5-4-x-x-x--5--4-x-x-x-x--5-4-x-x-x----------
4)-5-4-x-x-x--5--4-x-x-x-x--5-4-x-x-x------3---
5)-3-2-x-x-x--3--2-x-x-x-x--3-2-x-x-x----3----- 
6)-------------------------------------1-------
                                           ...We're dead
 Скачать
Какой бой для этой песни?
Шестерка
56.07%
Восьмерка
11.45%
Четверка
7.55%
Бой Цоя
5.57%
Регги
2.88%
Перебором
7.63%
Свой бой
8.84%

Проголосовало: 2568

Комментарии

Добавить комментарий

Ваш адрес email не будет опубликован. Обязательные поля помечены *