А Б В Г Д Е Ж З И К Л М Н О П Р С Т У Ф Х Ц Ч Ш Щ Э Ю Я
A B C D E F G H I J K L M N O P Q R S T U V W X Y Z 0-9

от автора

в

5FDP — Burn MF

Укулеле Гитара
Тональность -1 +1



Скорость
Цвет
//270deg //300deg //360deg // 45 deg //90 deg //150deg //180 deg //225deg //315 deg

Скорость
Intro: x2
 B5 / C5 B5        Em  
4)-4/5-4--4--4--4-2--4/5-4--4--4--4-2--4/5-4--4--4--4-2--4/5-4--4--4--4-2-
5)-2/3-2--2--2--2-2--2/3-2--2--2--2-2--2/3-2--2--2--2-2--2/3-2--2--2--2-2-

Verse:
   B5           B5           B5           D5  D5 / E5
4)-4-4-x-x-x-x--4-4-x-x-x-x--4-4-x-x-x-x--7-7--7/9-
5)-2-2-x-x-x-x--2-2-x-x-x-x--2-2-x-x-x-x--5-5--5/7-
   V V v ^ v ^  V V v ^ v ^  V V v ^ v ^  V V  v ^

Bm           Bm 
My heart is frozen
Bm              D / E 
My soul's been broken
Bm                      Bm                  
The whole world's on my mother fuckin' shoulders
Bm                   D  /  E
And I can't seem to control it
Bm           Bm
I can't contain it
Bm                D   /   E
And I just don't give a shit
Bm                    Bm
You need to feel the way that I feel
           Bm             
But you'll never fuckin' know it

Chorus:
Bm                 
BURN MOTHERFUCKER!BURN MOTHERFUCKER!BURN!
      E        /       D 
You try but you can't reach me
Bm
BURN MOTHERFUCKER!BURN MOTHERFUCKER!BURN!
          E        /       D
There is nothing you can teach me
   Bm              
IN HELL MOTHERFUCKER!BURN MOTHERFUCKER!BURN!
    E         /        D 
I swear you're out to get me
Bm
BURN MOTHERFUCKER!BURN MOTHERFUCKER!BURN!
     E         /        D 
I'd live but you won't let me

Intro:
 B5 / C5 B5        Em  
4)-4/5-4--4--4--4-2--4/5-4--4--4--4-2--4/5-4--4--4--4-2--4/5-4--4--4--4-2-
5)-2/3-2--2--2--2-2--2/3-2--2--2--2-2--2/3-2--2--2--2-2--2/3-2--2--2--2-2-
  BURN!

Verse:
Bm               Bm
Your life's been wasted
Bm            D / E
You'll die forsaken
Bm               Bm    
You act like the world's on your shoulders
         Bm                D / E 
But it's not there so you fake it
Bm        Bm  
Do you embrace it? 
Bm          D / E    
How do you take it?
Bm                  Bm
I'll never feel the way that you feel
    Bm           
I'd rather fucking break it

Chorus:
Bm                 
BURN MOTHERFUCKER! BURN MOTHERFUCKER!BURN!
      E        /       D 
You try but you can't reach me
Bm
BURN MOTHERFUCKER!BURN MOTHERFUCKER!BURN!
          E        /       D
There is nothing you can teach me
   Bm              
IN HELL MOTHERFUCKER!BURN MOTHERFUCKER!BURN!
    E         /        D 
I swear you're out to get me
Bm
BURN MOTHERFUCKER!BURN MOTHERFUCKER!BURN!
     E         /        D 
I'd live but you won't let me

 B5 / C5 B5        Em  
4)-4/5-4--4--4--4-2--4/5-4--4--4--4-2--4/5-4--4--4--4-2--4/5-4--4--4--4-2-
5)-2/3-2--2--2--2-2--2/3-2--2--2--2-2--2/3-2--2--2--2-2--2/3-2--2--2--2-2-

B5 / C5 B5                           E5         
Burn motherfucker burn motherfucker burn
B5 / C5 B5                           E5         
Burn motherfucker burn motherfucker burn
B5 / C5 B5                           E5         
Burn motherfucker burn motherfucker burn
B5
BURN MOTHERFUCKER BURN

 B5 / C5 B5        Em  
4)-4/5-4--4--4--4-2--4/5-4--4--4--4-2--4/5-4--4--4--4-2--4/5-4--4--4--4-2-} x2
5)-2/3-2--2--2--2-2--2/3-2--2--2--2-2--2/3-2--2--2--2-2--2/3-2--2--2--2-2-} 
BURN!

  A#5 E5          D5 A#5 E5          D5 A#5 E5          D5 A#5 E5          D5
4)-3-2--2--2--2--2-0--3-2--2--2--2--2-0--3-2--2--2--2--2-0--3-2--2--2--2--2-0-
5)-1-2--2--2--2--2-0--1-2--2--2--2--2-0--1-2--2--2--2--2-0--1-2--2--2--2--2-0-
6)---0--0--0--0--0------0--0--0--0--0------0--0--0--0--0------0--0--0--0--0---
BURN!

 B5 / C5 B5        Em  
4)-4/5-4--4--4--4-2--4/5-4--4--4--4-2--4/5-4--4--4--4-2--4/5-4--4--4--4-2-} x2
5)-2/3-2--2--2--2-2--2/3-2--2--2--2-2--2/3-2--2--2--2-2--2/3-2--2--2--2-2-}
BURN!

Bm                  
Burn motherfucker burn motherfucker burn
 E        /        D  
Burn motherfucker burn motherfucker burn
Bm
Burn motherfucker burn motherfucker burn
 E
BURN MOTHERFUCKER!

Chorus:
Bm                 
BURN MOTHERFUCKER!BURN MOTHERFUCKER!BURN!
      E        /       D 
You try but you can't reach me
Bm
BURN MOTHERFUCKER!BURN MOTHERFUCKER!BURN!
          E        /       D
There is nothing you can teach me
   Bm              
IN HELL MOTHERFUCKER!BURN MOTHERFUCKER!BURN!
    E         /        D 
I swear you're out to get me
Bm
BURN MOTHERFUCKER!BURN MOTHERFUCKER!BURN!
     E         /        D 
I'd live but you won't let me

Outro:
 B5 / C5 B5        Em  
4)-4/5-4--4--4--4-2--4/5-4--4--4--4-2--4/5-4--4--4--4-2--4/5-4--4--4--4-2-}
5)-2/3-2--2--2--2-2--2/3-2--2--2--2-2--2/3-2--2--2--2-2--2/3-2--2--2--2-2-} 
  BURN 

 B5 / C5 B5        Em  
4)-4/5-4--4--4--4-2--4/5-4--4--4--4-2--4/5-4--4--4--4-2--4/5-4--4--4--4-2-}
5)-2/3-2--2--2--2-2--2/3-2--2--2--2-2--2/3-2--2--2--2-2--2/3-2--2--2--2-2-} 
  BURN
 Скачать
Какой бой для этой песни?
Шестерка
56.02%
Восьмерка
11.23%
Четверка
7.61%
Бой Цоя
5.55%
Регги
3.09%
Перебором
7.79%
Свой бой
8.72%

Проголосовало: 2235

Комментарии

Добавить комментарий

Ваш адрес email не будет опубликован. Обязательные поля помечены *