А Б В Г Д Е Ж З И К Л М Н О П Р С Т У Ф Х Ц Ч Ш Щ Э Ю Я
A B C D E F G H I J K L M N O P Q R S T U V W X Y Z 0-9

от автора

в

5FDP — Weight Beneath My Sin

Укулеле Гитара
Тональность -1 +1



Скорость
Цвет
//270deg //300deg //360deg // 45 deg //90 deg //150deg //180 deg //225deg //315 deg

Скорость
Intro: x2
   C#5      E5 C#5             D5        C#5      E5 C#5             D5       C#5      E5 C#5
1)---------------------------------------------------------------------------------------------------------
2)---------------------------------------------------------------------------------------------------------
3)---------------------------------------------------------------------------------------------------------
4)-6-6-6-6--9--6-6-6--6-6-6-6--7-7-7-7---6-6-6-6--9--6-6-6--6-6-6-6--7-7-7-7---6-6-6-6--9--6-6-6--6-6-6-6--
5)-4-4-4-4--7--4-4-4--4-4-4-4--5-5-5-5---4-4-4-4--7--4-4-4--4-4-4-4--5-5-5-5---4-4-4-4--7--4-4-4--4-4-4-4--
6)---------------------------------------------------------------------------------------------------------

   D5        A5  E5  F5  G5 
1)-----------x---x--x-x---x--
2)-----------x---x--x-x---x--
3)-----------2---x--x-x---x--
4)-7-7-7-7---2---2--2-3---5--
5)-5-5-5-5---0---2--2-3---5--
6)---------------0--0-1---3--

Verse:
C#5          C#5 
You stole my life - 
C#5               
You've taken everything
A5       E5     F5 G5
Left me here to die
C#5         C#5
You wonder why
C#5
I wish you'd suffocate
    A5        E5      F5   G5
And kiss your ass goodnight

         C#5                    
It's the same old fucking story
    C#5
The same old fucking lies
    C#5
The same old fucking ending
          A5     E5        F5 G5
With the fucking same good bye

A          B
I can't believe

Chorus:
               C#m
Now I know that I 
         A
Don't belong 
        F#m
I don't care
          G#m                 C#m
You're a scar burned into my skin
           A
Can't hold on 
          F#m
Can't move on
            A    /    B       C#5 
You're the weight beneath my sin

Intro: x1
   C#5      E5 C#5             D5        C#5      E5 C#5             D5       C#5      E5 C#5
1)---------------------------------------------------------------------------------------------------------
2)---------------------------------------------------------------------------------------------------------
3)---------------------------------------------------------------------------------------------------------
4)-6-6-6-6--9--6-6-6--6-6-6-6--7-7-7-7---6-6-6-6--9--6-6-6--6-6-6-6--7-7-7-7---6-6-6-6--9--6-6-6--6-6-6-6--
5)-4-4-4-4--7--4-4-4--4-4-4-4--5-5-5-5---4-4-4-4--7--4-4-4--4-4-4-4--5-5-5-5---4-4-4-4--7--4-4-4--4-4-4-4--
6)---------------------------------------------------------------------------------------------------------

   D5        A5  E5  F5  G5 
1)-----------x---x--x-x---x--
2)-----------x---x--x-x---x--
3)-----------2---x--x-x---x--
4)-7-7-7-7---2---2--2-3---5--
5)-5-5-5-5---0---2--2-3---5--
6)---------------0--0-1---3--

Verse:
C#5          C#5 
You wish I'd die 
C#5
You don't care how
       A5      E5          F5 G5      
And I know you don't care why
C#5                C#5               
Can't see what you see 
C#5
I know you're begging me
A5      E5      F5 G5
Begging me to bleed

         C#5                    
It's the same old fucking story
    C#5
The same old fucking lies
   C#5
Without the same old ending
    A5      E5         F5 G5         
Without the same good byes

A          B
I can't believe

Chorus:
               C#m
Now I know that I 
         A
Don't belong 
        F#m
I don't care
          G#m                 C#m
You're a scar burned into my skin
           A
Can't hold on 
          F#m
Can't move on
            A    /    B       C#5 
You're the weight beneath my sin

Intro: x16
4)-6-6--9--6---9--6--7-7-7-7-
5)-4-4--7--4---7--4--5-5-5-5-

Chorus:
               C#m
Now I know that I 
         A
Don't belong 
        F#m
I don't care
          G#m                 C#m
You're a scar burned into my skin
           A
Can't hold on 
          F#m
Can't move on
            G#m              C#5 
You're the weight beneath my sin

               C#m
Now I know that I 
         A
Don't belong 
        F#m
I don't care
          G#m                 C#m
You're a scar burned into my skin
           A
Can't hold on 
          F#m
Can't move on
            A    /    B       C#m 
You're the weight beneath my sin
           A
Can't hold on 
          F#m
Can't move on
            A    /    B       C#5 
You're the weight beneath my sin

Outro:
   C#5      E5 C#5             D5        C#5      E5 C#5             D5       C#5      E5 C#5
1)---------------------------------------------------------------------------------------------------------
2)---------------------------------------------------------------------------------------------------------
3)---------------------------------------------------------------------------------------------------------
4)-6-6-6-6--9--6-6-6--6-6-6-6--7-7-7-7---6-6-6-6--9--6-6-6--6-6-6-6--7-7-7-7---6-6-6-6--9--6-6-6--6-6-6-6--
5)-4-4-4-4--7--4-4-4--4-4-4-4--5-5-5-5---4-4-4-4--7--4-4-4--4-4-4-4--5-5-5-5---4-4-4-4--7--4-4-4--4-4-4-4--
6)---------------------------------------------------------------------------------------------------------

   D5        A5  E5  F5  G5 
1)-----------x---x--x-x---x--
2)-----------x---x--x-x---x--
3)-----------2---x--x-x---x--
4)-7-7-7-7---2---2--2-3---5--
5)-5-5-5-5---0---2--2-3---5--
6)---------------0--0-1---3--
 Скачать
Какой бой для этой песни?
Шестерка
56.09%
Восьмерка
11.16%
Четверка
7.62%
Бой Цоя
5.56%
Регги
3.09%
Перебором
7.75%
Свой бой
8.74%

Проголосовало: 2232

Комментарии

Добавить комментарий

Ваш адрес email не будет опубликован. Обязательные поля помечены *