А Б В Г Д Е Ж З И К Л М Н О П Р С Т У Ф Х Ц Ч Ш Щ Э Ю Я
A B C D E F G H I J K L M N O P Q R S T U V W X Y Z 0-9

от автора

в

5FDP — This Is My War

Укулеле Гитара
Тональность -1 +1



Скорость
Цвет
//270deg //300deg //360deg // 45 deg //90 deg //150deg //180 deg //225deg //315 deg

Скорость
Intro:
   Am                      Am        /       C    Am                      Am       /      C
3)--------------------------------------------------------------------------------------9-------
4)---7---5---7---7---5h7-----7---5---7---7---10-----7---5---7---7---5h7-----7---5--9h10---10--9-
5)-0---0---0---0---0-------0---0---0---0---0------0---0---0---0---0-------0---0-----------------

Verse:
Am           
Tongue tied, dead inside
Am        /       C     
Nothing left, not even pride
Am                           Am      /      C
This isn't how I thought the future would go
Am
Hell-bent, soul spent
Am          /          C 
Nothing left but to repent
Am                         Am     /     C
I've gotta dig myself back out of this hole

Pre-Chorus:
F              A#                      
This isn't my fight...

Chorus:
           Am    C 
This is my War! War!
   F           G        Am C         
I never wanted anything more
   F 
(This is my)
  A#       Am    C  
This is my War! War!
F             G                 Am C 
Everything I love I'm fighting for
   F
(This is my)
  A#        Am
This is my war

Intro:
   Am                      Am        /       C    Am                      Am       /      C
3)--------------------------------------------------------------------------------------9-------
4)---7---5---7---7---5h7-----7---5---7---7---10-----7---5---7---7---5h7-----7---5--9h10---10--9-
5)-0---0---0---0---0-------0---0---0---0---0------0---0---0---0---0-------0---0-----------------

Verse:
 Am
Crazy eyed, certified
Am        /        C
Nothing left but shit inside
Am                        Am   /   C
Nobody said this would be easy to do
 Am
Crying out, crying out
Am        /       C 
Nothing left but pain and doubt
Am                    Am      /      C
I would be lying if I said it's for you

Pre-Chorus:
F              A#                      
This isn't my fight...

Chorus:
           Am    C 
This is my War! War!
   F           G        Am C         
I never wanted anything more
   F 
(This is my)
  A#       Am    C  
This is my War! War!
F             G                 Am C 
Everything I love I'm fighting for
   F
(This is my)
  A#        Am
This is my war

Bridge x4:
  A5         C5 A5             C5  A5        C5 A5  A#5           
4)-2--2-2-2--5--2-2--2--2-2-2--5---2--2-2-2--5--2-2--3--3--3--3-3-3-
5)-0--0-0-0--3--0-0--0--0-0-0--3---0--0-0-0--3--0-0--1--1--1--1-1-1-
  v^v v v v  v  v v  v  v v v^ v   v  v v v  v  v v         This is my war

Chorus:
           Am    C 
This is my War! War!
   F           G        Am C         
I never wanted anything more
   F 
(This is my)
  A#       Am    C  
This is my War! War!
F             G                 Am C 
Everything I love I'm fighting for
   F
(This is my)
  A#        Am
This is my war

Outro:
   Am                      Am        /       C    Am                      Am       /      C     
3)--------------------------------------------------------------------------------------9------------9-------
4)---7---5---7---7---5h7-----7---5---7---7---10-----7---5---7---7---5h7-----7---5--9h10---10--9-9h10---10--9-
5)-0---0---0---0---0-------0---0---0---0---0------0---0---0---0---0-------0---0------------------------------

  Am
3)---------------
4)---7---5---7-7-
5)-0---0---0-----
 Скачать
Какой бой для этой песни?
Шестерка
55.79%
Восьмерка
11.74%
Четверка
7.51%
Бой Цоя
5.53%
Регги
3.71%
Перебором
7.69%
Свой бой
8.03%

Проголосовало: 1158

Комментарии

Добавить комментарий

Ваш адрес email не будет опубликован. Обязательные поля помечены *