А Б В Г Д Е Ж З И К Л М Н О П Р С Т У Ф Х Ц Ч Ш Щ Э Ю Я
A B C D E F G H I J K L M N O P Q R S T U V W X Y Z 0-9

от автора

в

5FDP — If I Fall

Укулеле Гитара
Тональность -1 +1



Скорость
Цвет
//270deg //300deg //360deg // 45 deg //90 deg //150deg //180 deg //225deg //315 deg

Скорость
Intro:
1)---------2-----
2)-2h3-2-----2h3-
3)-------4-------

   G       Em      Bm       A        G       Em       Bm  
1)-----3-2-----3-2-----------------------3-2-----3-2--2--
2)----------------------5-3-----2-3-------------------3--
3)---4-------4--------4-------4--------4-------4------4--
4)-5-------2-------------------------5-------2--------4--
5)-----------------2--------2-------------------------2--
                                            
                                         1)---------2-----
                                         2)-2h3-2-----2h3-
                                         3)-------4-------

Verse:
A5 / B5 A5 / B5 A5 / B5 C5 / B5                             D5  E5 E5 / D5        
4)----------------------------------------------------------7---9---9/7--
5)-7/9-7/9-7/9-10/9---7/9-7/9-7/9-10/9---7/9-7/9-7/9-10/9---5---7---7/5--
6)-5/7-5/7-5/7-8-/7---5/7-5/7-5/7-8-/7---5/7-5/7-5/7-8-/7----------------

Verse:
A5 / B5 A5 / B5 A5 / B5 C5 / B5
I owe you nothing
A5 / B5 A5 / B5 A5 / B5 C5 / B5
I've given everything and more
A5 / B5 A5 / B5 A5 / B5 C5 / B5
I stand for something
      D5                    E5             E5 / D5 
The blood on my hands, the broken bones, I live it

  A5 / B5  A5 / B5     A5 / B5      C5 / B5
Knife in my back, you can't take it back
A5 / B5    A5 / B5      A5 / B5 C5 / B5
Eye for an eye - it's cut and dry
       A5 / B5 A5 / B5    A5 / B5 C5 / B5
I'll do what I know, reap what I sow
              D5                E5
While you're waiting for me to fail (If I fall)

Chorus:
G  / Em           
If I fall, if I fall
Bm     /     A
I'm dragging everybody down
G  / Em      Bm 
If I fall I will take everybody down (If I fall)
G / Em
If I fall, if I fall
Bm    /    A 
I'm taking everybody out
G / Em       Bm       
If I fall I will take everybody down

A5 / B5 A5 / B5 A5 / B5 C5 / B5                             D5  E5 E5 / D5        
4)----------------------------------------------------------7---9---9/7--
5)-7/9-7/9-7/9-10/9---7/9-7/9-7/9-10/9---7/9-7/9-7/9-10/9---5---7---7/5--
6)-5/7-5/7-5/7-8-/7---5/7-5/7-5/7-8-/7---5/7-5/7-5/7-8-/7----------------

Verse:
A5 / B5 A5 / B5 A5 / B5 C5 / B5
I'm not a voice of reason
A5 / B5 A5 / B5 A5 / B5 C5 / B5
Never been too big on fate
A5 / B5 A5 / B5 A5 / B5 C5 / B5
Seeing is believing
      D5                    E5             E5 / D5 
You run from it all, you stumble and crawl, I hate it

  A5 / B5  A5 / B5     A5 / B5      C5 / B5
Knife in your back, I won't take it back
A5 / B5  A5 / B5     A5 / B5      C5 / B5
Live and let die, the art of a lie
       A5 / B5 A5 / B5    A5 / B5 C5 / B5
You do what you know, you reap what you sow
              D5                E5
I'll be waiting for you to fail (If I fall)

Chorus:
G  / Em           
If I fall, if I fall
Bm     /     A
I'm dragging everybody down
G  / Em      Bm   
If I fall I will take everybody down (If I fall)
G / Em
If I fall, if I fall
Bm    /    A 
I'm taking everybody out
G / Em       Bm       
If I fall I will take everybody down

Bridge: Bm G Em D

Bm  G Em G 
Heeeyyyahh
Bm  G Em G 
Heeeyyyahh
Bm  G Em G 
Heeeyyyahh
Bm  G Em G 
Heeeyyyahh

Chorus:
   G       Em      Bm       A        G       Em      Bm  
1)-----3-2-----3-2-----------------------3-2-----3-2--2--
2)----------------------5-3-----2-3-------------------3--
3)---4-------4--------4-------4--------4-------4------4--
4)-5-------2-------------------------5-------2--------4--
5)-----------------2--------2-------------------------2--

G / Em
If I fall, if I fall
Bm    /    A
I'm taking everybody down
G / Em      Bm  
If I fall I will! (If I fall)

G / Em
If I fall, if I fall
Bm     /     A
I'm dragging everybody down
G / Em       Bm
If I fall I will take everybody down (If I fall)
G / Em
If I fall, fuck you all
Bm    /    A 
I'm taking everybody out
G / Em       Bm
If I fall I will take everybody down

(If I fall, if I fall, if I fall)
If I fall I will

Outro:
   G       Em      Bm       A        G       Em       Bm      A
1)-----3-2-----3-2-----------------------3-2-----3-2------------------
2)----------------------5-3-----2-3-----------------------5-3-----2-3-
3)---4-------4--------4-------4--------4-------4--------4-------4-----
4)-5-------2-------------------------5-------2------------------------
5)-----------------2--------2-------------------------2-------2-------
                                            
                                                           1)---------2-----
                                                           2)-2h3-2-----2h3-
                                                           3)-------4-------
 Скачать
Какой бой для этой песни?
Шестерка
56.44%
Восьмерка
11.3%
Четверка
7.41%
Бой Цоя
5.46%
Регги
2.88%
Перебором
7.52%
Свой бой
8.98%

Проголосовало: 2672

Комментарии

Добавить комментарий

Ваш адрес email не будет опубликован. Обязательные поля помечены *