А Б В Г Д Е Ж З И К Л М Н О П Р С Т У Ф Х Ц Ч Ш Щ Э Ю Я
A B C D E F G H I J K L M N O P Q R S T U V W X Y Z 0-9

от автора

в

5FDP — Got Your Six

Укулеле Гитара
Тональность -1 +1



Скорость
Цвет
//270deg //300deg //360deg // 45 deg //90 deg //150deg //180 deg //225deg //315 deg

Скорость
Intro:
   Bm                Em            G                 A
1)--------7-----------------3--0----------3-----------------5-------
2)-----------8---8---------------------------0---0------------0---0-
3)-----9-------9---------0-------------0-------0---------0------0---
4)---9-----------------2-------------2-----------------4------------
5)-7-----------------0-------------3-----------------5--------------
                                                    CHARGE!

Verse:
   B5       C5   B5       A#5  B5       C5  B5    A#5
2)-------------------------------------------4-------------|------------------------------
3)---------------------------------------------4---3---3---|------------------------------
4)-4--4-4--4-5---4--4-4--4-3---4--4-4--4-5---------------4-|-4--x-x--4-5--5-7--4-5--------
5)-2--2-2--2-3---2--2-2--2-1---2--2-2--2-3-------2---2-----|-2--x-x--2-3--3-5--2-3--5-4-3-
                       x2                                               x2
  
B5             C5
I'm a fucking soldier
B5          A#5
Just like I told you
B5         C5  
While I'm just warming up
B5             A#5
You're getting colder
B5         C5
Out on the battleground
B5           A#5 
Let's take a look around
B5              C5
Well there's a million of us 
C5         A#5    E5 D#5
Ready to throw down

Pre-Chorus:
              D5       C#5
They'll never take me alive

Chorus:
   B5       C5 B5 B5       C5 B5 B5       C5 B5 B5      D#5 C5             
4)-4-4-4-4--5--4--4-4-4-4--5--4--4-4-4-4--5--4--4-4-4-4--8--5-
5)-2-2-2-2--3--2--2-2-2-2--3--2--2-2-2-2--3--2--2-2-2-2--6--3-

B5      C5 B5
Hit the pit
B5             C5 B3
Blood on the bricks
B5          C5   
Don't look back 
B5      B5       D#5 C5    
Cause I got your six
B5        C5 B5 
Won't go down, 
B5           C5 B5
Never gonna quit
B5         C5 
Don't turn back 
B5      B5       D#5 C5 
Cause I got your six

   B5       C5   B5       A#5  B5       C5  B5    A#5
2)-------------------------------------------4-------------
3)---------------------------------------------4---3---3---
4)-4--4-4--4-5---4--4-4--4-3---4--4-4--4-5---------------4-
5)-2--2-2--2-3---2--2-2--2-1---2--2-2--2-3-------2---2-----

Verse:
B5                  C5   
You know I got your back
B5                  A#5
They'll never take that
B5              C5 
Until the bitter end
B5            A#5 
You know I'll never crack
B5           C5 
I'll face an army
B5            A#5 
Can't fucking harm me
B5           C5 
Out on the front line
B5                  A#5  E5 D#5
That's where you'll find me

Pre-Chorus:
              D5       C#5
They'll never take me alive

Chorus:
   B5       C5 B5 B5       C5 B5 B5       C5 B5 B5      D#5 C5             
4)-4-4-4-4--5--4--4-4-4-4--5--4--4-4-4-4--5--4--4-4-4-4--8--5-
5)-2-2-2-2--3--2--2-2-2-2--3--2--2-2-2-2--3--2--2-2-2-2--6--3-

B5      C5 B5
Hit the pit
B5             C5 B3
Blood on the bricks
B5          C5   
Don't look back 
B5      B5       D#5 C5    
Cause I got your six
B5        C5 B5 
Won't go down, 
B5           C5 B5
Never gonna quit
B5         C5 
Don't turn back 
B5      B5       D#5 C5 
Cause I got your six

Bridge:
   Bm                Em            G                 A
1)--------7-----------------3--0----------3-----------------5-------
2)-----------8---8---------------------------0---0------------0---0-
3)-----9-------9---------0-------------0-------0---------0------0---
4)---9-----------------2-------------2-----------------4------------
5)-7-----------------0-------------3-----------------5--------------
    Bm              Em              G             A 
     I will never accept defeat and I will never quit

I GOT YOUR SIX

2)------------------------------------------------------------
3)------------------------------------------------------------
4)-4--x-x--4-5--5-7--4-5---------4--x-x--4-5--5-7--4-5--------
5)-2--x-x--2-3--3-5--2-3--5-4-3--2--x-x--2-3--3-5--2-3--5-4-3-
                                                  I GOT YOUR SIX

2)------------------------------------------------------------
3)------------------------------------------------------------
4)-4--x-x--4-5--5-7--4-5---------4--x-x--4-5--5-7--4-5--------
5)-2--x-x--2-3--3-5--2-3--5-4-3--2--x-x--2-3--3-5--2-3--5-4-3-

   Bm                Em            G                 A
1)--------7-----------------3--0----------3-----------------5-------
2)-----------8---8---------------------------0---0------------0---0-
3)-----9-------9---------0-------------0-------0---------0------0---
4)---9-----------------2-------------2-----------------4------------
5)-7-----------------0-------------3-----------------5--------------

Chorus:
   B5       C5 B5 B5       C5 B5 B5       C5 B5 B5      D#5 C5             
4)-4-4-4-4--5--4--4-4-4-4--5--4--4-4-4-4--5--4--4-4-4-4--8--5-
5)-2-2-2-2--3--2--2-2-2-2--3--2--2-2-2-2--3--2--2-2-2-2--6--3-

B5      C5 B5
Hit the pit
B5             C5 B3
Blood on the bricks
B5          C5   
Don't look back 
B5      B5       D#5 C5    
Cause I got your six
B5        C5 B5 
Won't go down, 
B5           C5 B5
Never gonna quit
B5         C5 
Don't turn back 
B5      B5       D#5 C5 
Cause I got your six

B5      C5 B5
Hit the pit
B5             C5 B3
Blood on the bricks
B5          C5   
Don't look back 
B5      B5       D#5 C5    
Cause I got your six
B5        C5 B5 
Won't go down, 
B5           C5 B5
Never gonna quit
B5         C5 
Don't turn back 
B5      B5       D#5 C5 
Cause I got your six

Outro:
2)------------------------------------------------------------
3)------------------------------------------------------------
4)-4--x-x--4-5--5-7--4-5---------4--x-x--4-5--5-7--4-5--------
5)-2--x-x--2-3--3-5--2-3--5-4-3--2--x-x--2-3--3-5--2-3--5-4-3-
                        I'VE GOT YOUR SIX             I'VE GOT YOUR SIX
 Скачать
Какой бой для этой песни?
Шестерка
55.81%
Восьмерка
11.79%
Четверка
7.54%
Бой Цоя
5.55%
Регги
3.73%
Перебором
7.63%
Свой бой
7.97%

Проголосовало: 1154

Комментарии

Добавить комментарий

Ваш адрес email не будет опубликован. Обязательные поля помечены *