А Б В Г Д Е Ж З И К Л М Н О П Р С Т У Ф Х Ц Ч Ш Щ Э Ю Я
A B C D E F G H I J K L M N O P Q R S T U V W X Y Z 0-9

от автора

в

Alexisonfire — Accidents

Укулеле Гитара
Тональность -1 +1



Скорость
Цвет
//270deg //300deg //360deg // 45 deg //90 deg //150deg //180 deg //225deg //315 deg

Скорость
Alexisonfire - Accidents - Rhythm
Tunning - Drop Db
Timming might not be right, but its not hard to figure out

/ = Slide up
 = Slide down
~ = Let ride
x = Mute
. = Palm Mute
|x| 
|#| = Play # of times
h = Hammer on
p = Pull off

Intro Part Оnе
|----------------------------------------------|
|----------------------------------------------|
|-4-/-6-4--2-/-4-------------9-/-14-13-9-/-11-|
|-x-/-x-x--x-/-x-4~-0~-4~-0~-x-/-x--x--x-/-x--|
|-2-/-4-2--0-/-2-4~-0~-4~-0~-7-/-12-11-7-/-9--|
|-----------------4~-0~-4~-0~------------------|

Intro Part Two                                                  
|----------------------------------------------------------|E-----------------|
|----------------------------------------------------------|N-----------------|
|--------------------1414141414141414---1414141414141413---|D-1414-1414-1414-|
|-4444444444444444-0--x-x-x-x-x-x-x-x-0--x-x-x-x-x-x-x-x---|---x-x--x-x--x-x-|
|-4444444444444444-0-1212121212121212-0-1212121212121211-|x|О-1212-1212-1212-|
|-4444444444444444-0------------------0------------------|2|N-----------------|

Verse Part Оnе
|----------------------------------------------------------------|
|----------------------------------------------------------------|
|----------------------------------------------------------------|
|-4--------------------------------------------------------------|
|-4--------------------------------------------------------------|
|-4-44444444444444-00000000000000-44444444444444-000000000000000-|
    .............. .............. .............. ...............

Verse Part Two
|----------------------------------------------------|
|----------------------------------------------------|
|------------------1414-99-1414-99-1414-99-1414-99---|
|-4444444444444444--x-x-99--x-x-99--x-x-99--x-x-99---|
|-4444444444444444-1212-77-1212-77-1212-77-1212-77-|x|
|-4444444444444444---------------------------------|2|

Pre Chorus
|----------------------------------------------------------------------|
|----------------------------------------------------------------------|
|-4444444444444444-6------------------4444444444444444-6-77777777-9999-|
|-4444444444444444-6-0000000000000000-4444444444444444-6-77777777-9999-|
|-2222222222222222-4-0000000000000000-2222222222222222-4-55555555-7777-|
|--------------------0000000000000000----------------------------------|

Chorus
|--------------------------------------------------------------------|
|--------------------------------------------------------------------|
|--------------------------------14-13-9999-/-11---14-13-9999-/-11---|
|-4444444444444444-------------0--x--x-xxxx-/-x--0--x--x-xxxx-/-x----|
|-4444444444444444-2h4p2p0h2h4-0-12-11-7777-/-9--0-12-11-7777-/-9--|x|
|-4444444444444444-------------0-----------------0-----------------|2|

Chorus СОnт'd (End Оn)
|-------------|
|-------------|
|-------------|
|-4~-0~-4~-0~-|
|-4~-0~-4~-0~-|
|-4~-0~-4~-0~-|

Bridge Thing Part Оnе (Lead only for half [about 2:26])
|--------------------------------------------------------------|
|--------------------------------------------------------------|
|--------------------------------------------------------------|
|--------------------------------------------------------------|
|--------------------------------------------------------------|
|-44444444444444-00000000000000-44444444444444-000000000000000-|
  .............. .............. .............. ...............

Bridge Thing Part Two (Let's Redefine!)
|------------------------------------------|
|------------------------------------------|
|------------------------------------------|
|-------4~--------4~--------0~--------0~---|
|-------4~--------4~--------0~--------0~-|x|
|-4444444~-44444444~-00000000~-00000000~-|2|
  ......   .......   .......   .......

Pre Chorus
|----------------------------------------------------------------------xx-|
|----------------------------------------------------------------------xx-|
|-4444444444444444-6------------------4444444444444444-6-77777777-9999-xx-|
|-4444444444444444-6-0000000000000000-4444444444444444-6-77777777-9999-xx-|
|-2222222222222222-4-0000000000000000-2222222222222222-4-55555555-7777-xx-|
|--------------------0000000000000000----------------------------------xx-|

Chorus
|--------------------------------------------------------------------|
|--------------------------------------------------------------------|
|--------------------------------14-13-9999-/-11---14-13-9999-/-11---|
|-4444444444444444-------------0--x--x-xxxx-/-x--0--x--x-xxxx-/-x----|
|-4444444444444444-2h4p2p0h2h4-0-12-11-7777-/-9--0-12-11-7777-/-9--|x|
|-4444444444444444-------------0-----------------0-----------------|4|

Оuтrо
|---------------------------|E-----|
|---------------------------|N-----|
|-1111-/-1313-/-1414-/-16---|D-11~-|
|-x-x--/--x-x-/--x-x-/--x---|--x-~-|
|-9-9--/-1111-/-1212-/-14-|x|О-9-~-|
|-------------------------|4|N-----|

Sweet ass song off the new cd Watch Оuт! (i dont care what anyone says it f*cken rocks).
Enjoy.

©kLuTz 2004       X X 
            ,,|,, ___ ,,|,,

[email protected]
www.loudalone.com
 Скачать
Какой бой для этой песни?
Шестерка
53.83%
Восьмерка
13.78%
Четверка
7.4%
Бой Цоя
5.36%
Регги
5.1%
Перебором
5.61%
Свой бой
8.93%

Проголосовало: 392

Комментарии

Добавить комментарий

Ваш адрес email не будет опубликован. Обязательные поля помечены *