А Б В Г Д Е Ж З И К Л М Н О П Р С Т У Ф Х Ц Ч Ш Щ Э Ю Я
A B C D E F G H I J K L M N O P Q R S T U V W X Y Z 0-9

Валентин Стрыкало — 92 — версия 2

Укулеле Гитара
Тональность -1 +1



Скорость
Цвет
//270deg //300deg //360deg // 45 deg //90 deg //150deg //180 deg //225deg //315 deg

Скорость
Каподастр 4 лад
                     1:-----------------------------------------------------------------
Вступление(2 раза)   2:-----------------------------------------------------------------
                     3:----------9------------------------------------9-----------------
                     4:-----------------------------------------------------------------
                     5:-----------------------------------------------------------------
                     6: 8----8---8----8--------8--------------8---8---8----8--------8---
                        ↓    ↑   ↓    ↑        ↑              ↓   ↑   ↓    ↑        ↑

 C5                    F5             G5
Бабушка думает, я умру, если стану водиться с вами.
 F5            G                  C
Приходить постоянно странным к утру.
 C5                          F5             G5
Мы поедим в другой район, встретим Сашу, поймём, что Саша
F5           G                C
Наркотически объебашен и груб...груб...груб

 C            Am                    G6
Мы вернемся домой, будем молча смотреть
              Fmaj7                C    G6
Как кончается день, как взрывается дождь.
        Am                G6           Fmaj6
Что у тебя в душе? Ты никуда уже не уйдешь.
C5                         F5          G5
Ты не любишь моих звонков, их я думаю бросить делать
F5            G              C
Хотя хотя бы раз в неделю готов.
C5                       F5              G5
Буря времени сносит всё, мы дрейфуем на разных льдинах.
F5                    G           C
Как-то встретились в магазине и всё...всё...всё
 C           Am                 G6
Ты забыла давно самый солнечный год
            Fmaj7                 C   G6
Девяносто второй. Ну чего же ты ждёшь?

        Am                 G6           Fmaj7
Что у тебя в душе, ты никогда уже не поймёшь.
        Am                G6            Fmaj7
Что у тебя в душе, ты ничего уже не вернешь.

[Проигрыш]:Am G6 Fmaj7 C G6

[Соло]:1:-----------------------------------------------------------------
        2:----------14--------------14---16--------------------------------
        3:13---16---------13---16------------------------------------------
        4:-----------------------------------------------------------------
        5:-----------------------------------------------------------------
        6:-----------------------------------------------------------------
        Am                G6            Fmaj7
Что у тебя в душе, ты ничего уже не вернешь.

C5
От тебя никаких вестей. Дни, недели, десятилетия.
                             C
Никому неизвестно, где ты теперь.
 C5                        F5             G5
"Лох" - написано на стене, осень сыпет на лужи листья.
  F5           G               C
Здесь темнеет быстро и никого нет...нет...нет

Модуляция : Каподастр 6 лад

[Проигрыш]:Am G6 Fmaj7 C G6   } 2 раза

                 Am                G6
Я пройду через двор, через редкие сны
               Fmaj7                 C   G6
В девяносто втором, где ты всё еще ждёшь.

        Am                G6           Fmaj7
Что у тебя в душе? Ты никуда уже не уйдёшь.
        Am                G6            Fmaj7
Что у тебя в душе, ты ничего уже не вернешь.
 Скачать
Какой бой для этой песни?
Шестерка
53.53%
Восьмерка
13.14%
Четверка
8.33%
Бой Цоя
5.45%
Регги
4.17%
Перебором
5.13%
Свой бой
10.26%

Проголосовало: 312

Комментарии

Добавить комментарий

Ваш адрес email не будет опубликован. Обязательные поля помечены *