А Б В Г Д Е Ж З И К Л М Н О П Р С Т У Ф Х Ц Ч Ш Щ Э Ю Я
A B C D E F G H I J K L M N O P Q R S T U V W X Y Z 0-9

Валентин Стрыкало — Улица Сталеваров

Укулеле Гитара
Тональность -1 +1



Скорость
Цвет
//270deg //300deg //360deg // 45 deg //90 deg //150deg //180 deg //225deg //315 deg

Скорость
Каподастр на 2 ладу

[Вступление]:/*↓*/C | Am9 | Gm6 | C

[Куплет]:C           Am     F               G
Ещё не рассвет даже, пусть утром она расскажет
C                 Am       F           G
Как в город большой где то, меня занесло к ним ветром
C                  Am            F                G
Как встретились вдруг два взгляда, стоявших в метро рядом
C               Am     F            G
Как шли мы по тротуарам, по улице Сталеваров

[Припев]:F       Fm      C                Am
Ветер дул не туда, мы не встретились никогда
F      Fm         C              Am
Но когда спать пора, тени наших душ ходят по дворам

[Проигрыш]:F | Fm /*↓*/
C | Am /*↓*/
F | Fm

[Куплет]: C         Am       F             G
По улице Сталеваров, обнявшись гуляли пары
C           Am     F             G
И мы среди них тоже, похожи на всех прохожих
C           Am        F           G
Текли реки под мостами и голос через динамик
C           Am          F             G
Из окон открытых настежь, с тобой обещал нам счастье

[Припев]:F      Fm        C               Am
Ветер дул не туда, мы не встретились никогда
F      Fm          C             Am
Но когда спать пора, тени наших душ ходят по дворам

[Проигрыш]:/*либо шестёркой аккорды*/1----------------------------------------------------8--15------------
2--------------------------------------1-3-4-6-9--11-9--13------------
3--------------------------------------1-1-1-5-10-10-10-13------------
4--------------------------------------3-3-3-6-10-10------------------
5------5--3--2--3--3---5--3--2--3-------------------------------------
6--1-------------------------------1----------------------------------

[Куплет]: C           Am          F              G
Вы циникам злым не верьте, у вечной любви нет смерти
C          Am     F                G
И нету весны краше, чем в городе грёз нашем
C             Am      F                 G
Где очень тепло ночами, где будет в конце самом
C                Am        F              G
Где в грязном окне трамвая, в тумане мой дом тает

[Припев]:F       Fm      C            Am
Ветер дул не туда, мы не встретились никогда
F      Fm          C             Am
Но когда спать пора, тени наших душ ходят по дворам

[Кода]:/*либо шестёркой аккорды*/1---------------------------------------------------------------------
2---------------------------------------------------------------------
3---------------------------------------------------------------------
4---------------------------------------------------------------------
5------5--3--2--3--3---5--3--2--3------5--3--2--3--3---5--3--2--3-----
6--1-------------------------------1-------------------------------1--
 Скачать
Какой бой для этой песни?
Шестерка
54.04%
Восьмерка
12.28%
Четверка
8.77%
Бой Цоя
5.61%
Регги
4.56%
Перебором
4.56%
Свой бой
10.18%

Проголосовало: 285

Комментарии

Добавить комментарий

Ваш адрес email не будет опубликован. Обязательные поля помечены *