А Б В Г Д Е Ж З И К Л М Н О П Р С Т У Ф Х Ц Ч Ш Щ Э Ю Я
A B C D E F G H I J K L M N O P Q R S T U V W X Y Z 0-9

от автора

в

Sponge Cola — Iyong iyong iyo (Solo)

Укулеле Гитара
Тональность -1 +1



Скорость
Цвет
//270deg //300deg //360deg // 45 deg //90 deg //150deg //180 deg //225deg //315 deg

Скорость
Tuning: Half-step Down 
 
GUITAR SOLO 1 
e|----------------------------------------| 
B|----------------12h13p12----------------| 
G|-----------12------------14-12-12—12/14-| 
D|-----12h14------------------------------|  
A|----------------------------------------| 
E|----------------------------------------| 
 
e|-----------------------------| 
B|-----------------------------| 
G|-----12h14p12------------12--| 
D|--------------14---12h14-----| 
A|-----------------------------| 
E|-----------------------------| 
 
e|----------------------------------------------| 
B|-----12h13p12------12h13p12-------------------| 
G|--------------14------------14p12-------------| 
D|----------------------------------14p12-14p12-| 
A|----------------------------------------------| 
E|----------------------------------------------| 
 
e|--------------------------| 
B|--------------------------| 
G|-----------------12h14-12-| 
D|-----------12h14----------| 
A|-----12h14----------------| 
E|--------------------------| 
 
GUITAR SOLO 2 
e|-------------------------------| 
B|------------12-12-13-13-/15----| 
G|-----/12-12-----------------12-| 
D|-------------------------------| 
A|-------------------------------| 
E|-------------------------------| 
 
e|------12-12----------------------| 
B|------------15-15-13-12-13-13/20-| 
G|---------------------------------| 
D|---------------------------------| 
A|---------------------------------| 
E|---------------------------------| 
 
e|------------------------------| 
B|---------------20-20h22-20-20-| 
G|------19-19-21----------------| 
D|------------------------------| 
A|------------------------------| 
E|------------------------------| 
 
e|------------19-19-19-----------------------19-20-19-| 
B|------22-22----------22-22--22-22-20-22-------------| 
G|----------------------------------------------------| 
D|----------------------------------------------------| 
A|----------------------------------------------------| 
E|----------------------------------------------------|
 Скачать
Какой бой для этой песни?
Шестерка
55.53%
Восьмерка
11.72%
Четверка
7.56%
Бой Цоя
5.49%
Регги
3.66%
Перебором
7.9%
Свой бой
8.15%

Проголосовало: 1203

Комментарии

Добавить комментарий

Ваш адрес email не будет опубликован. Обязательные поля помечены *