А Б В Г Д Е Ж З И К Л М Н О П Р С Т У Ф Х Ц Ч Ш Щ Э Ю Я
A B C D E F G H I J K L M N O P Q R S T U V W X Y Z 0-9

от автора

в

Sponge Cola — Di Na Mababawi

Укулеле Гитара
Тональность -1 +1



Скорость
Цвет
//270deg //300deg //360deg // 45 deg //90 deg //150deg //180 deg //225deg //315 deg

Скорость
Verse: 
                 Bm A     D 
 Ngayo'y aking inuunawang pilit 
                 Bm         A      D 
 Mga pagkukulang kong iyong ginigiit 
                Bm    A        D        A 
 Sana'y malaman mo na tanging ikaw lamang 
        Bm          A 
 Ang aking iniintindi 
 
              Bm      A   D 
 Nakatanim pa sa'king ala-ala 
              Bm    A    D 
 Pangako mong mananatili ka 
                 Bm     A        D      A 
 Kaya't paglisan mo'y naiwan ang pusong ito 
         Bm              A 
 Na ngayo'y bitin na bitin 
 
Chorus: 
  Bm              A 
 'Di mo na mababawi iniwang sakit 
  D             A 
 Sa mga salitang binitiwan mo 
  Bm            A                   D 
 Hindi ba't ikaw na rin ang nagpasya, nagtakda 
            A 
 At siyang unang umiwas 
  Bm        A               D 
 Bakit nga ba ako 'yong pinaasa? 
 
Verse 2: 
                  Bm     A        D 
 Nasa aking guniguni malamig mong tinig 
                    Bm   A    D 
 Kasabay ng hanging na dumarampi 
                 Bm     A      D       A 
 Na para bang ika'y nariyan sa aking paligid 
     Bm              A 
 Tahimik na nagmamasid 
 
Chorus 
 
Bridge: 
  A                    G            Bm 
  Nahulog na'ng mga ulap, buwan at araw, mga bituwin 
  A                    G                  Bm        
 Ang ginugol na panaho'y na saan? (panaho'y na saan) 
           G                      Bm 
 'Di ba't sayang naman? (Di ba't sayang naman) 
  A 
 Giliw yeah yeah yeah yeah 
 
Adlib: Bm - A - D 
e|---------3---|---2h3-2-0-2---7-5-3-5--|---2h3-2-0-2------------------------| 
B|-----0-3-3---|-3-----------3----------|-3-----------4---6---7--------------| 
G|-----0-0-----|------------------------|------------------------------------| 
D|-------------|------------------------|------------------------------------| 
A|-5-5---------|------------------------|------------------------------------| 
E|-------------|------------------------|------------------------------------| 
 
e|-----------10----12----14-15-14-12-------------10-12-10--------------------| 
B|-2-3-5-7------10----10-------------14s12----12----------12s14--------------| 
G|---------7-------------------------------12-------------12s14--------------| 
D|---------------------------------------------------------------------------| 
A|---------------------------------------------------------------------------| 
E|---------------------------------------------------------------------------| 
        
Chorus: 
  Bm              A 
 'Di mo na mababawi iniwang sakit 
  D             A 
 Sa mga salitang binitiwan mo 
  Bm            A                   D 
 Hindi ba't ikaw na rin ang nagpasya, nagtakda 
            A 
 At siyang unang umiwas 
  Bm        A               D 
 Bakit nga ba ako 'yong pinaasa? 
  Bm        A               D 
 Bakit nga ba ako 'yong pinaasa?
 Скачать
Какой бой для этой песни?
Шестерка
55.53%
Восьмерка
11.72%
Четверка
7.56%
Бой Цоя
5.49%
Регги
3.66%
Перебором
7.9%
Свой бой
8.15%

Проголосовало: 1203

Комментарии

Добавить комментарий

Ваш адрес email не будет опубликован. Обязательные поля помечены *