А Б В Г Д Е Ж З И К Л М Н О П Р С Т У Ф Х Ц Ч Ш Щ Э Ю Я
A B C D E F G H I J K L M N O P Q R S T U V W X Y Z 0-9

от автора

в

Paul Simon — For Emily

Укулеле Гитара
Тональность -1 +1



Скорость
Цвет
//270deg //300deg //360deg // 45 deg //90 deg //150deg //180 deg //225deg //315 deg

Скорость
Fig 1:
p--> s
E|------------0---|
B|--3---3-----0---|
G|------------0---|
D|----------------|
A|----------------|
E|3---2---0-------|

Instrumental:
p s -->
p s-->
E|----5-----5-5-5-|--3---2---3-3-3-|----3-----3-3-3-|
B|----3-----3-3-3-|--3---3---3-3-3-|----3-----3-3-3-|
G|----2-----2-2-2-|--2---2---2-2-2-|----0-----0-0-0-|
D|0---0-----0-0-0-|--0---0---0-0-0-|----0-----0-0-0-|
A|----------------|----------------|----------------|
E|----------------|----------------|3---------------|

p--> s p s-->
p p
E|------------0---|----2-----2-2-3-|2-p-0-----------|
B|--3---3-----0---|----3-----3-3-3-|3-------3-------|
G|------------0---|----2-----2-2-2-|2-----------2---|
D|----------------|0---0-----0-0-0-|----------------|
A|----------------|----------------|----------------|
E|3---2---0-------|----------------|----------------|

r p-->
E|----------------|----------------|
B|0---2---0-------|0---------------| picking pattern resumes
G|0-----------4---|----4---2---0---| for last two measures of
instr:
D|2---------------|----------------| G | A --> last verse
A|3---------------|----------------|
E|----------------|----------------|
 Скачать
Какой бой для этой песни?
Шестерка
56.36%
Восьмерка
11.35%
Четверка
7.3%
Бой Цоя
5.49%
Регги
2.88%
Перебором
7.52%
Свой бой
9.1%

Проголосовало: 2713

Комментарии

Добавить комментарий

Ваш адрес email не будет опубликован. Обязательные поля помечены *