А Б В Г Д Е Ж З И К Л М Н О П Р С Т У Ф Х Ц Ч Ш Щ Э Ю Я
A B C D E F G H I J K L M N O P Q R S T U V W X Y Z 0-9

от автора

в

Paul Simon — Kodachrome

Укулеле Гитара
Тональность -1 +1



Скорость
Цвет
//270deg //300deg //360deg // 45 deg //90 deg //150deg //180 deg //225deg //315 deg

Скорость
Intro
vary E6 vari E6 A/C# A/C# tab
]----4-----4----]----4------4---]---4-----|-----]---------------]
]------0-----0--]------0------0-]-------0-|-----]---------------]
]---------------]---------------]---------|--2--]--------2------]
]--2-----2------]--2------2-----]-2-------|-----]-----2------2--]
]---------------]---------------]-----4---|0----]-3-4------4----]
]---------------]---------------]---------|-----]---------------]
E/A F#m B E
]---------------]-------|--2----]-------2-------]------0--v-1---]
]---------------]-------|--2----]-------3-------]------0--e-----]
]---2-------2---]-------|--2----]-------3-------]------1--r-n---]
]---------2-----]-------|--4----]-------3-------]------2--s-e---]
]-0---3-4-------]-------|--4----]-------2-------]------2--e-x---]
]---------------]-4-3-2-|--2----]-------2-------]------0----t---]
End Intro
 

VERSE 1 | intro tab |
E 
When I think back on all the crap I learned in high school.
F#m B E A6
Its a wonder I can think at all. |intro tab |
E 
and though my lack of education hasn't hurt me none.
F#m B E
I can read the writing on the wall


CHORUS:
A A6 F#m D E
Kodachro oh ohm give us those nice bright colors
A F#m
give us the greens of summers
B E A G#m F#m
makes you think all the worlds a sunny day oh ya
D E
I got a Nikon camera
A F#m
I love to take the photographs
B E A G#m F#m B 
so momma don't take my kodachrome away

VERSE 2
E 
If you took all the girls I new when I was single
F#m B E A6
and brought em all together for one night
E 
I know they never match my sweet imagination
F#m B E
and everything looks worse in black and white

CHORUS:
A A6 F#m D E
Kodachro oh ohm give us those nice bright colors
A F#m
give us the greens of summers



B E A G#m F#m
makes you think all the worlds a sunny day oh ya
D E
I got a Nikon camera
A F#m
I love to take the photographs
B E A G#m F#m
so momma don't take my kodachrome away


A G#m F#m
momma don't take my kodachrome away 
 
(play this the rest of the song)

A G#m F#m

and after 4 measures make it faster.
 Скачать
Какой бой для этой песни?
Шестерка
56.36%
Восьмерка
11.35%
Четверка
7.3%
Бой Цоя
5.49%
Регги
2.88%
Перебором
7.52%
Свой бой
9.1%

Проголосовало: 2713

Комментарии

Добавить комментарий

Ваш адрес email не будет опубликован. Обязательные поля помечены *