А Б В Г Д Е Ж З И К Л М Н О П Р С Т У Ф Х Ц Ч Ш Щ Э Ю Я
A B C D E F G H I J K L M N O P Q R S T U V W X Y Z 0-9

от автора

в

Paul Simon — Baby Driver

Укулеле Гитара
Тональность -1 +1



Скорость
Цвет
//270deg //300deg //360deg // 45 deg //90 deg //150deg //180 deg //225deg //315 deg

Скорость
Intro:

During the song there are more
E7 bends like the one below.
e:--0-----------------|--|-9b10-------------|------------|
B:--8b9--8b9---7-7--5-|--|-8b9--8b9---7-7--5|---7b9--7b9-|
G:--6b7--6b7---5-5--4-|x2|------6b7---5-5--4|------------|
D:--8b9--8b9---7-7----|--|------8b9---7-7---|------------|
A:--------------------|--|------------------|------------|
E:--------------------|--|------------------|------------|

During song:
E E6 riff " E bass" " A bass"
e:-----0--0-0---0-0-|----|--------------|--------------|
B:-----0--2-0---2-0-|----|--------------|--------------|
G:-----1--1-1---1-1-|----|-----------1--|--2--2--2--2--|
D:-----2--2-2---2-2-|-x2-|--2--2--2--2--|--2--2--2--2--|
A:-----2--2-2---2-2-|----|--2--2--2--2--|--0--4--5-----|
E:--0--0--0-0---0-0-|----|--0--4--5-----|--------------|

Verse 1:
E bass
My daddy was a family bassman,
my mama was an engineer,
and I was born one dark gray morn'
A bass E E6 riff
with music comin' in my ears, in my ears.

Chorus:
A bass (played 4 times here)
They call me Baby Driver, and once upon a pair of wheels
E
hit the road and I'm gone
A7 G#7 G7 F#7
 Скачать
Какой бой для этой песни?
Шестерка
56.36%
Восьмерка
11.36%
Четверка
7.3%
Бой Цоя
5.5%
Регги
2.88%
Перебором
7.49%
Свой бой
9.11%

Проголосовало: 2711

Комментарии

Добавить комментарий

Ваш адрес email не будет опубликован. Обязательные поля помечены *