А Б В Г Д Е Ж З И К Л М Н О П Р С Т У Ф Х Ц Ч Ш Щ Э Ю Я
A B C D E F G H I J K L M N O P Q R S T U V W X Y Z 0-9

от автора

в

Мастер — Пепел на ветру

Укулеле Гитара
Тональность -1 +1



Скорость
Цвет
//270deg //300deg //360deg // 45 deg //90 deg //150deg //180 deg //225deg //315 deg

Скорость
[Вступление]:
  Em               Em                Am                 Em               Am
  1 & 2 & 3 & 4 &  1 & 2 & 3 & 4 &   1 & 2 & 3 & 4 &  1 & 2 & 3 & 4 &  1 & 2 & 3 & 4 &
D|-----------0~---|-----------0~---|----------------|------------0---|----------------
A|-----------0~---|-----------0~---|---1010---------|-------------0--|---1010---------
F|---0---0---2~---|---0---0---2~---|--2----25-4-2-0-|---0---0---0--0-|--2----25-4-2-0-
C|--4-4-4-4-4-----|--4-4-4-4-4-----|-2------7-5-4-2-|--4-4-4-4-4----4|-2------7-5-4-2-
G|-2---2---2------|-2---2---2------|0---------------|-2---2----------|0---------------
D|0---------------|0---------------|----------------|0--------0------|----------------

  Em
  1 & 2 & 3 & 4 &
D|-----------0~---|
A|-----------0~---|
F|---0---0---2~---|
C|--4-4-4-4-4-----|
G|-2---2---2------|
D|0---------------|

[Куплет]:
  Em                     Am
  1 & 2 & 3 & 4 &        1 & 2 & 3 & 4 &
D|-----------0~---|     |----------------|
A|-----------0~0--|     |---1010---------|
F|---0---0---0~-0-|     |--2----25-4-2-0-|
C|--4-4-4-4-4----4|     |-2------7-5-4-2-|
G|-2---2---2------|     |0---------------|
D|0---------------|     |----------------|

Em
  Проплыл над полем звон
Em
  Дотронулся крылом
Em
  Достань звонарь вина
Em
  Ты с Богом говоришь
Em
  Когда зарю звонишь
Em
Выслушай меня
Am               Em
Я - пепел на ветру
 Am                 Em
Пыль и пепел на ветру

[Припев]:
G              Am            Em
 Золотистый свет далеких звезд
D                 Am              Em
 Спрятан в тайны рок-н-ролльных слез
G                  Am         Em
 Пальцы в кровь изранены струной
D                  Am          C
 Ho ветер все развеет над землей

[Куплет]:
Em
  Пей звонарь, за нашу грусть
Em
  За любовь и черный блюз
Em
  Белый снег везде
Em
  Мне гадали в Рождество
Em
  Да я гадалок выгнал вон
Em
  Видно быть беде

Am               Em
Я - пепел на ветру
 Am                 Em
Пыль и пепел на ветру

[Припев]:
(2 раза)G              Am            Em
 Золотистый свет далеких звезд
D                 Am              Em
 Спрятан в тайны рок-н-ролльных слез
G                  Am         Em
 Пальцы в кровь изранены струной
D                  Am          C
 Ho ветер все развеет над землей

[Кода]:
Em
 Мы - пепел на ветру
Em
 Мы - только пепел на ветру
 Скачать
Какой бой для этой песни?
Шестерка
55.51%
Восьмерка
11.59%
Четверка
7.37%
Бой Цоя
5.51%
Регги
3.65%
Перебором
7.94%
Свой бой
8.43%

Проголосовало: 1234

Комментарии

Добавить комментарий

Ваш адрес email не будет опубликован. Обязательные поля помечены *