А Б В Г Д Е Ж З И К Л М Н О П Р С Т У Ф Х Ц Ч Ш Щ Э Ю Я
A B C D E F G H I J K L M N O P Q R S T U V W X Y Z 0-9

от автора

в

Мастер — Пепел на ветру

Укулеле Гитара
Тональность -1 +1



Скорость
Цвет
//270deg //300deg //360deg // 45 deg //90 deg //150deg //180 deg //225deg //315 deg

Скорость
Вступление:
  Bb                          Bb                           Am                Am G F#m Em 
|--------------------------0-|--------------------------0-|------------------------------|
|---------------------0---0--|---------------------0---0--|-------1-0H1P0-----1--0-------|
|-------0-------0---2----2---|-------0-------0---2----2---|-----2---------2---0--0--2--0-|
|-----4---4---4---4-----4----|-----4---4---4---4-----4----|---2---------------------4--2-|
|---2-------2----------------|---2-------2----------------|-0----------------------------|
|-0--------------------------|-0--------------------------|------------------------------|

  Bb                               Am               Am G F#m Em Bb
|-------------------------0-------|------------------------------|
|---------------------------0-----|-------1-0H1P0-----1--0-------|
|-------0-------0-------0-----0---|-----2---------2---2--0--2--0-|
|-----4---4---4-------4---------4-|---2---------------------4--2-|
|---2-------2-------2-------------|-0----------------------------|
|-0---------------0---------------|------------------------------|

Куплет:
|----------------------------|
|---------------------0----0-|
|-------0-------0---2-----0--|
|-----4---4---4---4------2---|
|---2-------2-----------4----|
|-0--------------------------|

Проплыл над полем гром,
Дотронулся крылом,
Достань звонарь вина.

  Bb                          Bb
|--------------------------0-|--------------------------0-|  
|---------------------0---0--|---------------------0---0--|
|-------0-------0---2----2---|-------0-------0---2----2---| x2
|-----4---4---4---4-----4----|-----4---4---4---4-----4----|
|---2-------2----------------|---2-------2----------------|
|-0--------------------------|-0--------------------------|

Ход баса в начале каждого такта (Bb) 
e|-0---|

Ты с Богом говоришь,
Когда зарю звонишь,
Так выслушай меня. 
                                                                 
  Bb                          Bb                                 
|--------------------------0-|--------------------------0-|      
|---------------------0---0--|---------------------0---0--|      
|-------0-------0---2----2---|-------0-------0---2----2---| x2 
|-----4---4---4---4-----4----|-----4---4---4---4-----4----|      
|---2-------2----------------|---2-------2----------------|      
|-0--------------------------|-0--------------------------|

 Я                пе-пел на вет-    
 Am                Am G F#m Em   
|---------------------------------|     
|-------1-0H1P0-----1--0----------|
|-----2---------2---0--0---2--0---|
|---2----------------------4--2---|
|-0-------------------------------|
|---------------------------------|

  ру...                             Пыль         и   пе-пел на вет-  ру...  
  Bb                               Am                Am G F#m  Em    Bb
|-------------------------0-------|---------------------------------|-------------------------------------|
|---------------------------0-----|-------1-0H1P0-----1--0----------|-------------------------------------|
|-------0-------0-------0-----0---|-----2---------2---2--0---2--0---|-------0-------0-------0-------------|
|-----4---4---4-------4---------4-|---2----------------------4--2---|-----4---4---4-------4---0-----------|
|---2-------2-------2-------------|-0-------------------------------|---2-------2-------2-------3-2-0-----|
|-0---------------0---------------|---------------------------------|-0---------------0---------------3-2-|

Припев:
G(III)     Am(V)        Em(VII)     
Золотистый свет далеких звезд,
D(V)            Am(V)          Em
Спрятан в тайне рок-н-ролльных слез.
G(III)         Am(V)        Em(VII)
Пальцы в кровь изранены струной,-
D(V)         Am(V)          C
Но ветер все развеет над землей!...

Ход баса:
a|-/3---2-------|  
e|----------3---|

Куплет 2:
|----------------------------|
|---------------------0----0-|
|-------0-------0---2-----0--|
|-----4---4---4---4------2---|
|---2-------2-----------4----|
|-0--------------------------|

Пей звонарь за нашу грусть,
За любовь и черный блюз-
Белый снег везде!

  Bb                          Bb
|--------------------------0-|--------------------------0-|  
|---------------------0---0--|---------------------0---0--|
|-------0-------0---2----2---|-------0-------0---2----2---|  x2
|-----4---4---4---4-----4----|-----4---4---4---4-----4----|
|---2-------2----------------|---2-------2----------------|
|-0--------------------------|-0--------------------------|

Ход баса в начале каждого такта (Bb) 
e|-0---|

Мне гадали в рождество,
Да я гадалок выгнал вон-
Видно быть беде...

  Bb                          Bb                                 
|--------------------------0-|--------------------------0-|      
|---------------------0---0--|---------------------0---0--|      
|-------0-------0---2----2---|-------0-------0---2----2---| x2 
|-----4---4---4---4-----4----|-----4---4---4---4-----4----|      
|---2-------2----------------|---2-------2----------------|      
|-0--------------------------|-0--------------------------|

 Я                пе-пел на вет-    
 Am                Am G F#m Em   
|---------------------------------|     
|-------1-0H1P0-----1--0----------|
|-----2---------2---0--0---2--0---|
|---2----------------------4--2---|
|-0-------------------------------|
|---------------------------------|

  ру...                             Пыль         и   пе-пел на вет-  ру...  
  Bb                               Am                Am G F#m  Em    Bb
|-------------------------0-------|---------------------------------|-------------------------------------|
|---------------------------0-----|-------1-0H1P0-----1--0----------|-------------------------------------|
|-------0-------0-------0-----0---|-----2---------2---2--0---2--0---|-------0-------0-------0-------------|
|-----4---4---4-------4---------4-|---2----------------------4--2---|-----4---4---4-------4---0-----------|
|---2-------2-------2-------------|-0-------------------------------|---2-------2-------2-------3-2-0-----|
|-0---------------0---------------|---------------------------------|-0---------------0---------------3-2-|

Припев 2:
G(III)     Am(V)        Em(VII)     
Ты звони, звонарь зарю звони,
В(V)            Am(V)     Em
Добрым словом братьев помяни.
G(III)     Am(V)        Em(VII)     
Бог с тобой, звонарь, и Бог со мной -
В(V)         Am(V)          C
Но ветер всех развеет над землей!...

Соло

Припев 2:
G(III)     Am(V)        Em(VII)     
Ты звони, звонарь зарю звони,
В(V)            Am(V)     Em
Добрым словом братьев помяни.
G(III)     Am(V)        Em(VII)     
Бог с тобой, звонарь, и Бог со мной-
В(V)         Am(V)          C
Но ветер всех развеет над землей!...

Ход баса:
aI-/3---2-------|
eI----------3---|

       Мы пепел на ветру...   Мы только пепел на ветру.....
  Bb                          Bb
|--------------------------0-|-------------------------0-|  
|---------------------0---0--|--------------------0------|
|-------0-------0---2----2---|-------0---------0---------|  
|-----4---4---4---4-----4----|-----4---4----4------------|
|---2-------2----------------|---2-------2---------------|
|-0--------------------------|-0-------------------------|
 Скачать
Какой бой для этой песни?
Шестерка
55.79%
Восьмерка
11.74%
Четверка
7.51%
Бой Цоя
5.53%
Регги
3.71%
Перебором
7.69%
Свой бой
8.03%

Проголосовало: 1158

Комментарии

Добавить комментарий

Ваш адрес email не будет опубликован. Обязательные поля помечены *