А Б В Г Д Е Ж З И К Л М Н О П Р С Т У Ф Х Ц Ч Ш Щ Э Ю Я
A B C D E F G H I J K L M N O P Q R S T U V W X Y Z 0-9

30 Seconds To Mars — Fallen

Укулеле Гитара
Тональность -1 +1



Скорость
Цвет
//270deg //300deg //360deg // 45 deg //90 deg //150deg //180 deg //225deg //315 deg

Скорость
Intro - guitars 1 and 2
|---------------------------------------------------------------|
|---------------------------------------------------------------|
|---------------------------------------------------------------|
|--xx-8-6-8-10--10-12-0~---8~---0~---5/-------------------------|
|--xx-8-6-6-8---10-10-0~---8~---0~---5/-------------------------|
|--xx-8-6-------10----0~---8~---0~---5/-------------------------|
 
|-----------------------------------------------------------|
|-----------------------------------------------------------|
|-----------------------------------------------------------|
|-0~---8--xx--10-3--0~---5~---5--3--------------------------|
|-0~---8--xx--10-3--0~---5~---5--3--------------------------|
|-0~---8--xx--10-3--0~---5~---5--3--------------------------|

Verse - guitar 1
Listen to album for strumming pattern
|---------------------------------------------------------------|
|---------------------------------------------------------------|
|---------------------------------------------------------------|
|--7-5-8-5------------------------------------------------------|
|--5-5-5-5------------------------------------------------------|
|---------------------------------------------------------------|
 PM throughout

Guitar Fill in verse - guitar 2 (with chorus)
|----10---------------------------------------------------------|
|-------10------------------------------------------------------|
|---------------------------------------------------------------|
|---------------------------------------------------------------|
|---------------------------------------------------------------|
|---------------------------------------------------------------| 

Chorus - guitars 1 and 2
Listen to album for strumming pattern
|-------------------------------------------------------------|
|-------------------------------------------------------------|
|-------------------------------------------------------------|
|---10-----9------12------10------10----9----12---------------|
|-0-8----0-7----0-10----0-10-0----8-----7----10---------------|
|-0------0------0-------0-10-0--------------------------------|

|-------------------------------------------------------------|
|-------------------------------------------------------------|
|-------------------------------------------------------------|
|---10-----9------12------10------10----9----5----------------|
|-0-8----0-7----0-10----0-10-0----8-----7----3----------------|
|-0------0------0-------0-10-0--------------------------------|

|-------------------------------------------------------------|
|-------------------------------------------------------------|
|-------------------------------------------------------------|
|---10-----9------12------10-0----10----9----12---------------|
|-0-8----0-7----0-10----0-10-0----8-----7----10---------------|
|-0------0------0-------0-10-0--------------------------------|

|------------------------------------------------------------|
|------------------------------------------------------------|
|------------------------------------------------------------|
|---10-----9------12------10-0--xx-10-xx-9-xx-108--7/8-10-0--|
|-0-8----0-7----0-10----0-10-0--xx-8--xx-7-xx-108--7/8-8--0--|
|-0------0------0-------0-10-0--xx----xx------108--7/8----0--|

Play Verse - guitar 1 w/ melody - guitar 2 (w/chorus) in the 
background.
Melody - guitar 2 (w/chours)
|---------------------------------------------------------------|
|---------------------------------------------------------------|
|----14----15----14----12---------------------------------------|
|-12----12----12----12----12-15---------------------------------|
|---------------------------------------------------------------|
|---------------------------------------------------------------|

|---------------------------------------------------------------|
|---------------------------------------------------------------|
|----14----15----14----12---------------------------------------|
|-12----12----12----12----12-14---------------------------------|
|---------------------------------------------------------------|
|---------------------------------------------------------------|

|---------------------------------------------------------------|
|---------------------------------------------------------------|
|----14----15----14----12---------------------------------------|
|-12----12----12----12----12-15---------------------------------|
|---------------------------------------------------------------|
|---------------------------------------------------------------|

|---------------------------------------------------------------|
|---------------------------------------------------------------|
|----------------------------12---------------------------------|
|----12----14----15----14---------------------------------------|
|-12----12----12----12----12------------------------------------|
|---------------------------------------------------------------|


Riff - guitars 1 and 2
Listen to album for strumming pattern
|---------------------------------------------------------------|
|---------------------------------------------------------------|
|---------------------------------------------------------------|
|----0~---8~---0~---5/------------------5-----------------------|
|----0~---8~---0~---5/----0-8-10-8-0----5-----------------------|
|----0~---8~---0~---5/----0-8-10-8-0----5-----------------------|
                PM. . .. . .
                Slowly release PM towards end and before
                the last note.

First guitar fill during chorus - guitars 1 and 2
|---------------------------------------------------------------|
|---------------------------------------------------------------|
|---------10--9-------------------------------------------------|
|-5/7--9--8---7--10--9--10--------------------------------------|
|-3/5--7---------8---7--8---------------------------------------|
|---------------------------------------------------------------|

Melody 2 - guitar 2 (w/ chorus and distortion)
|-------------------------------------------------------------|
|-------------------------------------------10----------------|
|-----------10-------------12---------------------------------|
|--10h12-----------10h12-----------10h12----------------------|
|-------------------------------------------------------------|
|-------------------------------------------------------------|
The song ends with this played instead of the following one. 

|-------------------------------------------------------------|
|-------------------------------------------------------------|
|-----------10-------------12-------------10----9-------------|
|--10h12-----------10h12-----------10h12---------------12-----|
|-------------------------------------------------------------|
|-------------------------------------------------------------|

Second Guitar fill during chorus - guitars 1 and 2
|---------------------------------------------------------------|
|---------------------------------------------------------------|
|---------------------------------------------------------------|
|----------3----2----1----0-------------------------------------|
|----------3----2----1----0-------------------------------------|
|----------3----2----1----0-------------------------------------|
This is how the song ends.
 Скачать
Какой бой для этой песни?
Шестерка
56.51%
Восьмерка
11.33%
Четверка
7.27%
Бой Цоя
5.48%
Регги
2.89%
Перебором
7.49%
Свой бой
9.03%

Проголосовало: 2736

Комментарии

Добавить комментарий

Ваш адрес email не будет опубликован. Обязательные поля помечены *