А Б В Г Д Е Ж З И К Л М Н О П Р С Т У Ф Х Ц Ч Ш Щ Э Ю Я
A B C D E F G H I J K L M N O P Q R S T U V W X Y Z 0-9

от автора

в

Сова — Гроза

Укулеле Гитара
Тональность -1 +1



Скорость
Цвет
//270deg //300deg //360deg // 45 deg //90 deg //150deg //180 deg //225deg //315 deg

Скорость
[Куплет 1]:
   Gm           Eb
Отмеряю шагами этажи
   Bb            D
Я сегодня живу и не тужу
   Gm            Eb
Говоришь: «Минутку подожди»
   Bb            D
Хорошо, не страшно, я подожду
  Gm            Eb
Отмеряю шагами этажи
  Bb             D
Я сегодня живу и не тужу
  Gm             Eb
Говоришь: «Минутку подожди»
  Bb             D
Хорошо, не страшно, я подожду

[Припев]:
  Gm               Eb
Хочешь дружить — я с радостью
  Bb               D
Хочешь любить — я со всей страстью
  Gm               Eb
Не хочешь, ладно, я только за
  Bb               D
Вот только громче стала гроза…
  Gm               Eb
Хочешь дружить — я с радостью
  Bb               D
Хочешь любить — я со всей страстью
  Gm               Eb
Не хочешь, ладно, я только за
  Bb               D
Вот только громче стала гроза…

[Проигрыш]:
(2 раза )[Куплет 2]:
  Gm            Eb
Светофора огни, как миражи
  Bb            D
Нужен зонт размером с парашют
  Gm            Eb
Этот дождь со мною пережди
  Bb            D
Ладно, хочешь домой я провожу
  Gm            Eb
Светофора огни, как миражи
  Bb            D
Нужен зонт размером с парашют
  Gm            Eb
Этот дождь со мною пережди
  Bb            D
Ладно, хочешь домой я провожу

[Припев]:
  Gm               Eb
Хочешь дружить — я с радостью
  Bb               D
Хочешь любить — я со всей страстью
  Gm               Eb
Не хочешь, ладно, я только за
  Bb               D
Вот только громче стала гроза…
  Gm               Eb
Хочешь дружить — я с радостью
  Bb               D
Хочешь любить — я со всей страстью
  Gm               Eb
Не хочешь, ладно, я только за
  Bb               D
Вот только громче стала гроза…

[Кода]:
Gm Eb
  Bb               D
Вот только громче стала гроза…
  Bb               D
Вот только громче стала гроза…
  Bb               D
Вот только громче стала гроза…

[Соло]:
/*в самом начале*/E|--------------------------------------------------------------------------------------
B|--------------------------------------------------------------------------------------
G|----7-7--5-5--3-3--2---3—3-0--3-3--0-3--7--7-7--7-7-3-2--2-5-3-----—------------------
D|-----------------------------3--------------------------------------------------------
A|--------------------------------------------------------------------------------------
E|--------------------------------------------------------------------------------------

E|--------------------------------------------------------------------------------------
B|--------------------------------------------------------------------------------------
G|--------—3-0--3-3--0-3--7--7-7--7-7-3-2--2-5-3-----—----------------------------------
D|------------3-------------------------------------------------------------------------
A|--------------------------------------------------------------------------------------
E|--------------------------------------------------------------------------------------

[Соло]:
/*после припева*/E|--------------------------------------------------------------------------------------
B|------------3-3-6-6-4-4-3-----3-3-----4-4-3-----3-3-6-6-4-4-3-----3-3-----------------
G|--------3-3---------------3-3---2-2---------3-3---------------3-3-----7-7--5-5--3-3--2
D|--------------------------------------------------------------------------------------
A|--------------------------------------------------------------------------------------
E|--------------------------------------------------------------------------------------
 Скачать
Какой бой для этой песни?
Шестерка
56.36%
Восьмерка
11.36%
Четверка
7.3%
Бой Цоя
5.5%
Регги
2.88%
Перебором
7.49%
Свой бой
9.11%

Проголосовало: 2711

Комментарии

Добавить комментарий

Ваш адрес email не будет опубликован. Обязательные поля помечены *