А Б В Г Д Е Ж З И К Л М Н О П Р С Т У Ф Х Ц Ч Ш Щ Э Ю Я
A B C D E F G H I J K L M N O P Q R S T U V W X Y Z 0-9

Сладкий сон — Не грусти

Укулеле Гитара
Тональность -1 +1



Скорость
Цвет
//270deg //300deg //360deg // 45 deg //90 deg //150deg //180 deg //225deg //315 deg

Скорость
Gm         Cm             D#          Cm   
Не грусти, не грусти- видишь небо хмурится,
  Cm                Gm       A           D
Нам с тобою по пути, так пойдем по улицам.
  Gm             Cm          F             Fm G
Не грусти, не грусти- пусть не быть нам вместе,
   Cm                   Gm          D#7  D 
Жаль осталась навсегда недопетой песня.

Припев: 
          Cm          D               Gm   D#      
А я подарю тебе букет, чистый как признание;
           Cm             D         D       G
Белой цвет черемухи весной как в первое свидание.
            Cm              D          Gm   D# 
А я подарю тебе любовь, позабудем прошлое
            Cm           D                  Gm 
Пусть пройдет плохое поскорей, а прийдет хорошее.

Не грусти, не грусти, а то все красавица;
Разошлись наши пути и в судьбе наладится.
Не грусти, не грусти- пусть не быть нам вместе,
Жаль осталась навсегда недопетой песня.

E:-------------------8------------ --------------------8---6 -5---------                         
B:------11---10--------11--------- -----11---10------------- ------8----
G:-7-------------------------7---8 -7---------------7------- ----------8

E:-----10---7---8---8---------10-----------------10----------13---10---------11-
B:-8-----------------------------------12---------------------------------------
G:------------------------12-----------------12----------12----------------12---

E:-------------- -----8------ ----------- ------8---6 -----------
B:-10---13---11- ---------11- -10---8---- ----------- -----10---8
G:-------------- -8---------- ----------8 -8--------- -8---------
 Скачать
Какой бой для этой песни?
Шестерка
54.03%
Восьмерка
12.08%
Четверка
8.72%
Бой Цоя
5.7%
Регги
4.36%
Перебором
4.7%
Свой бой
10.4%

Проголосовало: 298

Комментарии

Добавить комментарий

Ваш адрес email не будет опубликован. Обязательные поля помечены *