А Б В Г Д Е Ж З И К Л М Н О П Р С Т У Ф Х Ц Ч Ш Щ Э Ю Я
A B C D E F G H I J K L M N O P Q R S T U V W X Y Z 0-9

от автора

в

Garbage — Shut Your Mouth

Укулеле Гитара
Тональность -1 +1



Скорость
Цвет
//270deg //300deg //360deg // 45 deg //90 deg //150deg //180 deg //225deg //315 deg

Скорость
Intro:
-------------------------------------------
-------------------------------------------
-------------------------------------------
-------------------------------------------
-------------------------------------------
--3bend and release-3br----3br-------------

Chorus:
--------------------------------------
--------------------------------------
--------------------------------------
--------------------------------------
-2--2-2--2-2-2--2--5-5-5--5-5-5--5-5--
-0--0-0--0-0-0--0--3-3-3--3-3-3--3-3--

(meanwhile secon guitar does the same as the intro)

----------------------------------------
----------------------------------------
----------------------------------------
-----------------------2-2-2--2-2-2-----
--3-3-3-3--3-3-3-3--3--0-0-0--0-0-0-----
--3-3-3-3--3-3-3-3--3-------------------

Bridge:
--------------------------------------
--------------------------------------
--------------------------------------
-2-2-----------4-4-2-2-2-2------------
-2-2--2-2--4-4-6-6-4-4-2-2------------
------4-4--6-6------------------------

Solo
-------------------------------------------
-------------------------------------------
---9-9-x-9 99-xx 9-9-9-9-9-9-x-9-x-9-x-9-9-
-------------------------------------------
-------------------------------------------
-------------------------------------------
-------------------------------------------
 Скачать
Какой бой для этой песни?
Шестерка
53.01%
Восьмерка
13.66%
Четверка
7.65%
Бой Цоя
5.46%
Регги
4.92%
Перебором
5.74%
Свой бой
9.56%

Проголосовало: 366

Комментарии

Добавить комментарий

Ваш адрес email не будет опубликован. Обязательные поля помечены *