А Б В Г Д Е Ж З И К Л М Н О П Р С Т У Ф Х Ц Ч Ш Щ Э Ю Я
A B C D E F G H I J K L M N O P Q R S T U V W X Y Z 0-9

от автора

в

Garbage — I Think I’m Paranoid — версия 3

Укулеле Гитара
Тональность -1 +1



Скорость
Цвет
//270deg //300deg //360deg // 45 deg //90 deg //150deg //180 deg //225deg //315 deg

Скорость
RIFF 1 with distortion
e|----------------|----------------|
B|----------------|----------------|
G|----------------|----------------|
D|5-----5-3-----3-|6-----6-3-----3-| X 3
A|5-----5-3-----3-|4-----4-1-----1-|
E|3-----3-1-----1-|4-----4-1-----1-|
I Think I'm Paranoid...

RIFF 2
e|----------------|----------------|----------------||
B|----------------|----------------|----------------||
G|----------------|----------------|----------------||
D|5-----5-3-----3-|6---6---6---6-3-|--3---3-3-3-3-3-||
A|5-----5-3-----3-|4---4---4---6-3-|--3---3-3-3-3-3-||
E|3-----3-1-----1-|4---4---4---4-1-|--1---1-1-1-1-1-||

Chorus:
with distortion
e|----------------|----------------|----------------|----------------|
B|----------------|----------------|----------------|----------------|
G|3---------------|----------------|3---------------|7---------------|
D|3---------------|3---------------|3---------------|7---------------|
A|1---------------|3---------------|1---------------|5---------------|
E|----------------|1---------------|----------------|----------------|
Bend Me Breack Me...

e|----------------|----------------|----------------|----------------|
B|----------------|----------------|----------------|----------------|
G|3---------------|----------------|3---------------|7-7-7-7-7-7-7-7-|
D|3---------------|3---------------|3---------------|7---------------|
A|1---------------|3---------------|1---------------|5---------------|
E|----------------|1---------------|----------------|----------------|

e|----------------||
B|----------------||
G|7-7-7-7-7-7-7-7-||
D|----------------||
A|----------------||
E|----------------||

Bridge: 1
|----------------|     |----------------|
|----------------|     |----------------|
|9---------/129--|     |5----------/129-|
|9---------/129--| X 3 |5----------/129-|
|7---------/10---|     |3----------/10--|
|----------------|     |----------------|

|----------------|     |----------------|----------------||
|----------------|     |----------------|----------------||
|9---------/129--|     |5---5---5---5-3-|3-3-3-3-3-------||
|9---------/129--| X 3 |5---5---5---5-3-|3-3-3-3-3-------||
|7---------/10---|     |3---3---3---3-1-|1-1-1-1-1-------||
|----------------|     |----------------|----------------||

Bridge 2:
RIFF 4
|----------------|----------------|----------------|----------------|
|----------------|----------------|----------------|----------------|
|----------------|----------------|----------------|----------------|
|5-----5-3-----3-|6-6-6-6-6-6-6-6-|5-----5-3-----3-|6-6-6-6-6-6-6-6-| X 4
|5-----5-3-----3-|6-6-6-6-6-6-6-6-|5-----5-3-----3-|6-6-6-6-6-6-6-6-|
|3-----3-1-----1-|4-4-4-4-4-4-4-4-|3-----3-1-----1-|4-4-4-4-4-4-4-4-|
Steal Me Deal Me...

Outro:
RIFF 1 X 3

|part 1
e|----7-----------|----------------||
B|8-----8-10--6---|----------------||
G|--------------7-|----------------||
D|----------------|----------------||
A|----------------|----------------||
E|----------------|----------------||
|
|part 2
e|----------------|----------------||
B|--------------3-|----------------||
G|0---4-0---0-5---|0---------------||
D|----------------|----------------||
A|----------------|----------------||
E|----------------|----------------||
|
|part 3
e|----3---1-------|----------------||
B|------------1-3-|----------------||
G|----------------|----------------||
D|----------------|----------------||
A|----------------|----------------||
E|----------------|----------------||
It's Alright.

These Are some extra riffs which occur throughout the song:
RIFF 1
Riff 1 has three seperate parts to it which
overlap each other.

|part 1
e|----7-----------|----------------||
B|8-----8-10--6---|--8-----6---10--||
G|--------------7-|------7---------||
D|----------------|----------------||
A|----------------|----------------||
E|----------------|----------------||
|
|part 2
e|----------------|----------------||
B|--------------3-|--------------3-||
G|0---4-0---0-5---|0-4-0-4---0-5---||
D|----------------|----------------||
A|----------------|----------------||
E|----------------|----------------||
|
|part 3
e|----3---1-------|----------------||
B|------------1-3-|--3---0-1---3---||
G|----------------|----------------||
D|----------------|----------------||
A|----------------|----------------||
E|----------------|----------------||

RIFF 2
e|----5---6-----5-|--6-----5---6---||
B|4-----------4---|------4---------||
G|----------------|----------------||
D|----------------|----------------||
A|----------------|----------------||
E|----------------|----------------||

RIFF 3
e|--------1315----|13--------------||
B|------15--------|------15--------||
G|----------------|----------------||
D|----------------|----------------||
A|----------------|----------------||
E|----------------|----------------||

RIFF 4
e|----------------|--------11--11-10|
B|----11--13b---11|----11-----------|
G|--12--12----12--|--12--12---------|
D|----------------|-----------------|
A|----------------|-----------------|
E|----------------|-----------------|
 Скачать
Какой бой для этой песни?
Шестерка
53.83%
Восьмерка
13.78%
Четверка
7.4%
Бой Цоя
5.36%
Регги
5.1%
Перебором
5.61%
Свой бой
8.93%

Проголосовало: 392

Комментарии

Добавить комментарий

Ваш адрес email не будет опубликован. Обязательные поля помечены *