А Б В Г Д Е Ж З И К Л М Н О П Р С Т У Ф Х Ц Ч Ш Щ Э Ю Я
A B C D E F G H I J K L M N O P Q R S T U V W X Y Z 0-9

30 сантиметров — Петля времени

Укулеле Гитара
Тональность -1 +1



Скорость
Цвет
//270deg //300deg //360deg // 45 deg //90 deg //150deg //180 deg //225deg //315 deg

Скорость
[Вступление]:1/------|-5-4-7-|-----|--------|
2/---5--|-------|-5-4-|------7-|
3/-6----|-------|-----|-4-6----|

[Куплет 1]:C#m                  A
Тридцать раз вокруг Солнца верхом
E             H
Я на шаре земном пролетел
C#m                  A
И покинул родительский дом,
F#m             G#
Но пока ничего не успел.
C#m                 A
Дни несутся сквозь ночи и тьму
E                  H
Словно мысли в пустой голове,
C#m           A
Я разуюсь и, молча, пойду
F#m           G#
Босиком по зеленой траве.

[Припев]:C#m            A
Я пойду далеко на восток
E              H
Против хода Земли как дурак,
C#m          A
Побегу я туда, где восход,
E               H
Постараюсь вернуться назад.
C#m                A
Может быть, мой получится план,
E               H
Повернет стрелку времени вспять,
C#m              A
Пусть я в физике полный профан,
E                   H
Не вернуть, так чуть-чуть задержать.

[Куплет 2]:C#m            A
Человечество бьется об лед
E                 H
Черных дыр во вселенной пустой,
C#m              A
Ключ от вечности все не найдет,
F#m              G#
Да и двери в ней нет ни одной.
C#m         A
И поэтому собственный путь
E                 H
Проложил вдоль орбиты я вспять,
C#m            A
Чтобы в прошлое вновь заглянуть
F#m           G#
И себя чтобы не потерять.

[Припев]:C#m            A
Я пойду далеко на восток
E              H
Против хода Земли как дурак,
C#m          A
Побегу я туда, где восход,
E               H
Постараюсь вернуться назад.
C#m                A
Может быть, мой получится план,
E               H
Повернет стрелку времени вспять,
C#m              A
Пусть я в физике полный профан,
E                   H
Не вернуть, так чуть-чуть задержать.

[Соло]:1/-----------5-4-----------7--9--|
2/---5-4-5-------5~~-4-5-7-------|
3/-6-------6---------------------|
4/-------------------------------|

1/------------------------------------------------------------9-|
2/-9-7---7-9--10--9-7--------------5--7--5--5------------9-10---|
3/-----9-----8--------9-8---9-8-9--6--6--6--4-------9-11--------|
4/------------------------9--------------------9-11-------------|

1/---------------5-4-------9-------------------------------|
2/---5-4--5-4--5-----5-7-9---10--5--7--5--5----------------|
3/-6-----6----6------------------6--6--6--4--6-4-----------|
4/-----------------------------------------------6-4---4-6-|
5/---------------------------------------------------6-----|

1/------------9--------------------------------------------------|
2/-4-5-7-9-10---10--9-7--------------5--7--5--5------------------|
3/----------------------9-8---9-8-9--6--6--6--4--6-4-------------|
4/--------------------------9------------------------6-4---------|
5/-------------------------------------------------------6-4-----|
6/-----------------------------------------------------------6-4-|

G# A#

[Куплет 3]:D#m          H
Я увижу себя вдалеке
F#            C#
Чуть моложе, но в чем-то мудрей,
D#m          H
Я умел отдаваться мечте
G#m           A#
И других мог вести вслед за ней.
D#m            H
Жажда денег заставит забыть
F#             C#
Цель, которую ставил себе,
D#m               H
Детям вновь суждено повторить
G#m              A#
То, что взрослые видят во сне.

[Припев]:D#m           H
Я пойду далеко на восток
F#            C#
Против хода Земли как дурак,
D#m          H
Побегу я туда, где восход,
F#              C#
Постараюсь вернуться назад.
D#m                H
Может быть, мой получится план,
F#              C#
Повернет стрелку времени вспять,
D#m              H
Пусть я в физике полный профан,
F#                  C#
Не вернуть, так чуть-чуть задержать.

[Кода]:1/------|-7-6-9-|-----|-------|
2/---7--|-------|-7-6-|-----9-|
3/-8----|-------|-----|-6-8---|
 Скачать
Какой бой для этой песни?
Шестерка
56.26%
Восьмерка
11.01%
Четверка
7.5%
Бой Цоя
5.59%
Регги
3.03%
Перебором
7.85%
Свой бой
8.76%

Проголосовало: 2307

Комментарии

Добавить комментарий

Ваш адрес email не будет опубликован. Обязательные поля помечены *