А Б В Г Д Е Ж З И К Л М Н О П Р С Т У Ф Х Ц Ч Ш Щ Э Ю Я
A B C D E F G H I J K L M N O P Q R S T U V W X Y Z 0-9

1.5 кг отличного пюре — Океан

Укулеле Гитара
Тональность -1 +1



Скорость
Цвет
//270deg //300deg //360deg // 45 deg //90 deg //150deg //180 deg //225deg //315 deg

Скорость
F5         C5      D5      A#5
Вот предо мной океан Он безбрежен. 
F5         C5      D5      A#5
Стал думать я о тебе как-то реже.
 F5        C5      D5      A#5
Да, может быть ты права, все напрасно. 
F5         C5      D5      A#5      F5 G5
Но завтра день для меня будет очень ясным. 

F5                             G5
Зная себя хорошо и довольно давно, 
                         A#5
Понять не могу себя все равно, 
                            F5
Сколько бы я не пытался, но тщетно. 

F5             G5          A#5     
Как случилось так, что оборвалось 
F5      G5   A#5
Что-то там внутри? 
F5          G5            A#5
Как бывает так, что все сгорает 
F5  G5       A#5
За один лишь миг? 
F5  G5       A#5
За короткий миг. 

F5         C5      D5      A#5
Кто ты сейчас для меня в самом деле? 
F5         C5      D5   F5  G5   
Я разглядел, извини, повнимательнее
F5                            G5 
Ято океан без конца и без края 
                                  A#5
В твоих бесконечно больших глазах голубых 
                      F5
Просто обычная серая лужа.

F5             G5          A#5     
Как случилось так, что оборвалось 
F5      G5   A#5
Что-то там внутри? 
F5          G5            A#5
Как бывает так, что все сгорает 
F5  G5       A#5
За один лишь миг? 
F5  G5       
За короткий  

Solo:
Guitar 1:
e|--------------------------------------------------------------------|
B|------------------------------------------------------3---3---3---3-|
G|----3---3---3---3---3---3---3---3---3---3---3---3---1---1---1---1---|
D|--1---1---1---1---1---1---1---1---1---1---1---1---------------------|
A|--------------------------------------------------------------------|
E|--------------------------------------------------------------------|

Guitar 2:
  8x 8x  8x 8x
|--------------|
|--------------|
|--------------|
|--3—-5—-3—-8--|
|--3—-5—-3--8--|
|--1—-3—-1—-6—-|

Guitar 1:
|---------------------------------------------------------------------|
|----------------------3---3---3---3--------------------3---3---3---3-|
|----3---3---3---3---1---1---1---1-----3---3---3---3--1---1---1---1---|
|--1---1---1---1---------------------1---1---1---1--------------------|
|---------------------------------------------------------------------|
|---------------------------------------------------------------------|

Guitar 2:
  8x 8x  8x 8x
|--------------|
|--------------|
|--------------|
|--3—-8—-3—-8--|
|--3—-8—-3--8--|
|--1—-6—-1—-6—-|

Guitar 2:
  8x 8x  8x 8x
|--------------|
|--------------|
|--------------|
|--8—-3—-5—-3--|
|--8—-3--5—-3--|
|--6—-1—-3—-1--|
 Скачать
Какой бой для этой песни?
Шестерка
55.45%
Восьмерка
11.74%
Четверка
7.52%
Бой Цоя
5.54%
Регги
3.72%
Перебором
7.93%
Свой бой
8.1%

Проголосовало: 1210

Комментарии

Добавить комментарий

Ваш адрес email не будет опубликован. Обязательные поля помечены *